  0
SECTION
  2
HEADER
  9
$ACADVER
  1
AC1014
  9
$ACADMAINTVER
 70
     9
  9
$DWGCODEPAGE
  3
ANSI_932
  9
$INSBASE
 10
0.0
 20
0.0
 30
0.0
  9
$EXTMIN
 10
1.000000000000000E+20
 20
1.000000000000000E+20
 30
1.000000000000000E+20
  9
$EXTMAX
 10
-1.000000000000000E+20
 20
-1.000000000000000E+20
 30
-1.000000000000000E+20
  9
$LIMMIN
 10
0.0
 20
0.0
  9
$LIMMAX
 10
12.0
 20
9.0
  9
$ORTHOMODE
 70
     0
  9
$REGENMODE
 70
     1
  9
$FILLMODE
 70
     1
  9
$QTEXTMODE
 70
     0
  9
$MIRRTEXT
 70
     1
  9
$DRAGMODE
 70
     2
  9
$LTSCALE
 40
1.0
  9
$OSMODE
 70
    37
  9
$ATTMODE
 70
     1
  9
$TEXTSIZE
 40
0.2
  9
$TRACEWID
 40
0.05
  9
$TEXTSTYLE
  7
STANDARD
  9
$CLAYER
  8
0
  9
$CELTYPE
  6
BYLAYER
  9
$CECOLOR
 62
   256
  9
$CELTSCALE
 40
1.0
  9
$DELOBJ
 70
     1
  9
$DISPSILH
 70
     0
  9
$DIMSCALE
 40
1.0
  9
$DIMASZ
 40
0.18
  9
$DIMEXO
 40
0.0625
  9
$DIMDLI
 40
0.38
  9
$DIMRND
 40
0.0
  9
$DIMDLE
 40
0.0
  9
$DIMEXE
 40
0.18
  9
$DIMTP
 40
0.0
  9
$DIMTM
 40
0.0
  9
$DIMTXT
 40
0.18
  9
$DIMCEN
 40
0.09
  9
$DIMTSZ
 40
0.0
  9
$DIMTOL
 70
     0
  9
$DIMLIM
 70
     0
  9
$DIMTIH
 70
     1
  9
$DIMTOH
 70
     1
  9
$DIMSE1
 70
     0
  9
$DIMSE2
 70
     0
  9
$DIMTAD
 70
     0
  9
$DIMZIN
 70
     0
  9
$DIMBLK
  1

  9
$DIMASO
 70
     1
  9
$DIMSHO
 70
     1
  9
$DIMPOST
  1

  9
$DIMAPOST
  1

  9
$DIMALT
 70
     0
  9
$DIMALTD
 70
     2
  9
$DIMALTF
 40
25.4
  9
$DIMLFAC
 40
1.0
  9
$DIMTOFL
 70
     0
  9
$DIMTVP
 40
0.0
  9
$DIMTIX
 70
     0
  9
$DIMSOXD
 70
     0
  9
$DIMSAH
 70
     0
  9
$DIMBLK1
  1

  9
$DIMBLK2
  1

  9
$DIMSTYLE
  2
STANDARD
  9
$DIMCLRD
 70
     0
  9
$DIMCLRE
 70
     0
  9
$DIMCLRT
 70
     0
  9
$DIMTFAC
 40
1.0
  9
$DIMGAP
 40
0.09
  9
$DIMJUST
 70
     0
  9
$DIMSD1
 70
     0
  9
$DIMSD2
 70
     0
  9
$DIMTOLJ
 70
     1
  9
$DIMTZIN
 70
     0
  9
$DIMALTZ
 70
     0
  9
$DIMALTTZ
 70
     0
  9
$DIMFIT
 70
     3
  9
$DIMUPT
 70
     0
  9
$DIMUNIT
 70
     2
  9
$DIMDEC
 70
     4
  9
$DIMTDEC
 70
     4
  9
$DIMALTU
 70
     2
  9
$DIMALTTD
 70
     2
  9
$DIMTXSTY
  7
STANDARD
  9
$DIMAUNIT
 70
     0
  9
$LUNITS
 70
     2
  9
$LUPREC
 70
     4
  9
$SKETCHINC
 40
0.1
  9
$FILLETRAD
 40
0.5
  9
$AUNITS
 70
     0
  9
$AUPREC
 70
     0
  9
$MENU
  1
.
  9
$ELEVATION
 40
0.0
  9
$PELEVATION
 40
0.0
  9
$THICKNESS
 40
0.0
  9
$LIMCHECK
 70
     0
  9
$CHAMFERA
 40
0.5
  9
$CHAMFERB
 40
0.5
  9
$CHAMFERC
 40
1.0
  9
$CHAMFERD
 40
0.0
  9
$SKPOLY
 70
     0
  9
$TDCREATE
 40
2456421.832708333
  9
$TDUPDATE
 40
2456421.832708345
  9
$TDINDWG
 40
0.0000000116
  9
$TDUSRTIMER
 40
0.0000000116
  9
$USRTIMER
 70
     1
  9
$ANGBASE
 50
0.0
  9
$ANGDIR
 70
     0
  9
$PDMODE
 70
     0
  9
$PDSIZE
 40
0.0
  9
$PLINEWID
 40
0.0
  9
$COORDS
 70
     1
  9
$SPLFRAME
 70
     0
  9
$SPLINETYPE
 70
     6
  9
$SPLINESEGS
 70
     8
  9
$ATTDIA
 70
     0
  9
$ATTREQ
 70
     1
  9
$HANDLING
 70
     1
  9
$HANDSEED
  5
1BF
  9
$SURFTAB1
 70
     6
  9
$SURFTAB2
 70
     6
  9
$SURFTYPE
 70
     6
  9
$SURFU
 70
     6
  9
$SURFV
 70
     6
  9
$UCSNAME
  2

  9
$UCSORG
 10
0.0
 20
0.0
 30
0.0
  9
$UCSXDIR
 10
1.0
 20
0.0
 30
0.0
  9
$UCSYDIR
 10
0.0
 20
1.0
 30
0.0
  9
$PUCSNAME
  2

  9
$PUCSORG
 10
0.0
 20
0.0
 30
0.0
  9
$PUCSXDIR
 10
1.0
 20
0.0
 30
0.0
  9
$PUCSYDIR
 10
0.0
 20
1.0
 30
0.0
  9
$USERI1
 70
     0
  9
$USERI2
 70
     0
  9
$USERI3
 70
     0
  9
$USERI4
 70
     0
  9
$USERI5
 70
     0
  9
$USERR1
 40
0.0
  9
$USERR2
 40
0.0
  9
$USERR3
 40
0.0
  9
$USERR4
 40
0.0
  9
$USERR5
 40
0.0
  9
$WORLDVIEW
 70
     1
  9
$SHADEDGE
 70
     3
  9
$SHADEDIF
 70
    70
  9
$TILEMODE
 70
     1
  9
$MAXACTVP
 70
    64
  9
$PINSBASE
 10
0.0
 20
0.0
 30
0.0
  9
$PLIMCHECK
 70
     0
  9
$PEXTMIN
 10
1.000000000000000E+20
 20
1.000000000000000E+20
 30
1.000000000000000E+20
  9
$PEXTMAX
 10
-1.000000000000000E+20
 20
-1.000000000000000E+20
 30
-1.000000000000000E+20
  9
$PLIMMIN
 10
0.0
 20
0.0
  9
$PLIMMAX
 10
12.0
 20
9.0
  9
$UNITMODE
 70
     0
  9
$VISRETAIN
 70
     1
  9
$PLINEGEN
 70
     0
  9
$PSLTSCALE
 70
     1
  9
$TREEDEPTH
 70
  3020
  9
$PICKSTYLE
 70
     1
  9
$CMLSTYLE
  2
STANDARD
  9
$CMLJUST
 70
     0
  9
$CMLSCALE
 40
1.0
  9
$PROXYGRAPHICS
 70
     1
  9
$MEASUREMENT
 70
     0
  0
ENDSEC
  0
SECTION
  2
CLASSES
  0
CLASS
  1
ACDBDICTIONARYWDFLT
  2
AcDbDictionaryWithDefault
  3
ObjectDBX Classes
 90
        0
280
     0
281
     0
  0
CLASS
  1
VISUALSTYLE
  2
AcDbVisualStyle
  3
ObjectDBX Classes
 90
     4095
280
     0
281
     0
  0
CLASS
  1
XRECORD
  2
AcDbXrecord
  3
AutoCAD 2000
 90
        0
280
     0
281
     0
  0
CLASS
  1
LWPOLYLINE
  2
AcDbPolyline
  3
AutoCAD 2000
 90
        0
280
     0
281
     1
  0
CLASS
  1
HATCH
  2
AcDbHatch
  3
AutoCAD 2000
 90
        0
280
     0
281
     1
  0
CLASS
  1
ACDBPLACEHOLDER
  2
AcDbPlaceHolder
  3
ObjectDBX Classes
 90
        0
280
     0
281
     0
  0
CLASS
  1
LAYOUT
  2
AcDbLayout
  3
ObjectDBX Classes
 90
        0
280
     0
281
     0
  0
ENDSEC
  0
SECTION
  2
TABLES
  0
TABLE
  2
VPORT
  5
8
330
0
100
AcDbSymbolTable
 70
     1
  0
VPORT
  5
29
330
8
100
AcDbSymbolTableRecord
100
AcDbViewportTableRecord
  2
*ACTIVE
 70
     0
 10
0.0
 20
0.0
 11
1.0
 21
1.0
 12
0.0
 22
0.0
 13
0.0
 23
0.0
 14
0.5
 24
0.5
 15
0.5
 25
0.5
 16
0.0
 26
0.0
 36
1.0
 17
105.0008259828644
 27
-148.4999796178229
 37
0.0
 40
296.9999592356459
 41
0.7070763662937379
 42
50.0
 43
0.0
 44
0.0
 50
0.0
 51
0.0
 71
     0
 72
   100
 73
     1
 74
     3
 75
     0
 76
     0
 77
     0
 78
     0
  0
ENDTAB
  0
TABLE
  2
LTYPE
  5
5
330
0
100
AcDbSymbolTable
 70
     1
  0
LTYPE
  5
14
330
5
100
AcDbSymbolTableRecord
100
AcDbLinetypeTableRecord
  2
BYBLOCK
 70
     0
  3

 72
    65
 73
     0
 40
0.0
  0
LTYPE
  5
15
330
5
100
AcDbSymbolTableRecord
100
AcDbLinetypeTableRecord
  2
BYLAYER
 70
     0
  3

 72
    65
 73
     0
 40
0.0
  0
LTYPE
  5
16
330
5
100
AcDbSymbolTableRecord
100
AcDbLinetypeTableRecord
  2
CONTINUOUS
 70
     0
  3
Solid line
 72
    65
 73
     0
 40
0.0
  0
ENDTAB
  0
TABLE
  2
LAYER
  5
2
330
0
100
AcDbSymbolTable
 70
     2
  0
LAYER
  5
10
330
2
100
AcDbSymbolTableRecord
100
AcDbLayerTableRecord
  2
0
 70
     0
 62
     7
  6
CONTINUOUS
  0
LAYER
  5
3B
330
2
100
AcDbSymbolTableRecord
100
AcDbLayerTableRecord
  2
_____1
 70
     0
 62
     7
  6
CONTINUOUS
  0
ENDTAB
  0
TABLE
  2
STYLE
  5
3
330
0
100
AcDbSymbolTable
 70
     1
  0
STYLE
  5
11
330
3
100
AcDbSymbolTableRecord
100
AcDbTextStyleTableRecord
  2
STANDARD
 70
     0
 40
0.0
 41
1.0
 50
0.0
 71
     0
 42
0.2
  3
txt
  4

  0
ENDTAB
  0
TABLE
  2
VIEW
  5
6
330
0
100
AcDbSymbolTable
 70
     0
  0
ENDTAB
  0
TABLE
  2
UCS
  5
7
330
0
100
AcDbSymbolTable
 70
     0
  0
ENDTAB
  0
TABLE
  2
APPID
  5
9
330
0
100
AcDbSymbolTable
 70
     1
  0
APPID
  5
12
330
9
100
AcDbSymbolTableRecord
100
AcDbRegAppTableRecord
  2
ACAD
 70
     0
  0
ENDTAB
  0
TABLE
  2
DIMSTYLE
  5
A
330
0
100
AcDbSymbolTable
 70
     1
  0
DIMSTYLE
105
27
330
A
100
AcDbSymbolTableRecord
100
AcDbDimStyleTableRecord
  2
STANDARD
 70
     0
  3

  4

  5

  6

  7

 40
1.0
 41
0.18
 42
0.0625
 43
0.38
 44
0.18
 45
0.0
 46
0.0
 47
0.0
 48
0.0
140
0.18
141
0.09
142
0.0
143
25.4
144
1.0
145
0.0
146
1.0
147
0.09
 71
     0
 72
     0
 73
     1
 74
     1
 75
     0
 76
     0
 77
     0
 78
     0
170
     0
171
     2
172
     0
173
     0
174
     0
175
     0
176
     0
177
     0
178
     0
270
     2
271
     4
272
     4
273
     2
274
     2
340
11
275
     0
280
     0
281
     0
282
     0
283
     1
284
     0
285
     0
286
     0
287
     3
288
     0
  0
ENDTAB
  0
TABLE
  2
BLOCK_RECORD
  5
1
330
0
100
AcDbSymbolTable
 70
     1
  0
BLOCK_RECORD
  5
1F
330
1
100
AcDbSymbolTableRecord
100
AcDbBlockTableRecord
  2
*MODEL_SPACE
  0
BLOCK_RECORD
  5
1B
330
1
100
AcDbSymbolTableRecord
100
AcDbBlockTableRecord
  2
*PAPER_SPACE
  0
ENDTAB
  0
ENDSEC
  0
SECTION
  2
BLOCKS
  0
BLOCK
  5
20
330
1F
100
AcDbEntity
  8
0
100
AcDbBlockBegin
  2
*MODEL_SPACE
 70
     0
 71
     0
 10
0.0
 20
0.0
 30
0.0
  3
*MODEL_SPACE
  1

  0
ENDBLK
  5
21
330
1F
100
AcDbEntity
  8
0
100
AcDbBlockEnd
  0
BLOCK
  5
1C
330
1B
100
AcDbEntity
 67
     1
  8
0
100
AcDbBlockBegin
  2
*PAPER_SPACE
 70
     0
 71
     0
 10
0.0
 20
0.0
 30
0.0
  3
*PAPER_SPACE
  1

  0
ENDBLK
  5
1D
330
1B
100
AcDbEntity
 67
     1
  8
0
100
AcDbBlockEnd
  0
ENDSEC
  0
SECTION
  2
ENTITIES
  0
SPLINE
  5
3C
330
1F
100
AcDbEntity
  8
_____1
100
AcDbSpline
210
0.0
220
0.0
230
1.0
 70
    11
 71
     3
 72
    17
 73
    13
 74
     0
 42
0.0000000001
 43
0.0000000001
 40
0.0
 40
0.0
 40
0.0
 40
0.0
 40
1.0
 40
1.0
 40
1.0
 40
2.0
 40
2.0
 40
2.0
 40
3.0
 40
3.0
 40
3.0
 40
4.0
 40
4.0
 40
4.0
 40
4.0
 10
108.3299940050356
 20
-134.9140733169659
 30
0.0
 10
108.3641004503395
 20
-135.0163926528778
 30
0.0
 10
108.4915689832938
 20
-135.1197455174353
 30
0.0
 10
108.6135253634716
 20
-135.1448947144777
 30
0.0
 10
108.7361707627465
 20
-135.1696994019715
 30
0.0
 10
108.8071397297427
 20
-135.1066541545914
 30
0.0
 10
108.7726887748902
 20
-135.0043348186795
 30
0.0
 10
108.7382378200377
 20
-134.901670973219
 30
0.0
 10
108.611113796632
 20
-134.7986626182101
 30
0.0
 10
108.4895019260026
 20
-134.7735134211677
 30
0.0
 10
108.3668565267277
 20
-134.7483642241254
 30
0.0
 10
108.2951985406345
 20
-134.8114094715055
 30
0.0
 10
108.3299940050356
 20
-134.9140733169659
 30
0.0
  0
SPLINE
  5
3D
330
1F
100
AcDbEntity
  8
_____1
 62
    29
100
AcDbSpline
210
0.0
220
0.0
230
1.0
 70
     8
 71
     3
 72
    14
 73
    10
 74
     0
 42
0.0000000001
 43
0.0000000001
 40
0.0
 40
0.0
 40
0.0
 40
0.0
 40
1.0
 40
1.0
 40
1.0
 40
2.0
 40
2.0
 40
2.0
 40
3.0
 40
3.0
 40
3.0
 40
3.0
 10
108.6135253634716
 20
-135.1448947144777
 30
0.0
 10
108.7361707627465
 20
-135.1696994019715
 30
0.0
 10
108.8071397297427
 20
-135.1066541545914
 30
0.0
 10
108.7726887748902
 20
-135.0043348186795
 30
0.0
 10
108.7382378200377
 20
-134.901670973219
 30
0.0
 10
108.611113796632
 20
-134.7986626182101
 30
0.0
 10
108.4895019260026
 20
-134.7735134211677
 30
0.0
 10
108.3668565267277
 20
-134.7483642241254
 30
0.0
 10
108.2951985406345
 20
-134.8114094715055
 30
0.0
 10
108.3299940050356
 20
-134.9140733169659
 30
0.0
  0
POLYLINE
  5
3E
330
1F
100
AcDbEntity
  8
_____1
 62
    29
100
AcDb2dPolyline
 66
     1
 10
0.0
 20
0.0
 30
0.0
  0
VERTEX
  5
3F
330
3E
100
AcDbEntity
  8
_____1
 62
    29
100
AcDbVertex
100
AcDb2dVertex
 10
106.2150498866407
 20
-137.2309000307964
 30
0.0
  0
VERTEX
  5
40
330
3E
100
AcDbEntity
  8
_____1
 62
    29
100
AcDbVertex
100
AcDb2dVertex
 10
108.343429877428
 20
-134.8262233820921
 30
0.0
  0
SEQEND
  5
41
330
3E
100
AcDbEntity
  8
_____1
  0
POLYLINE
  5
42
330
1F
100
AcDbEntity
  8
_____1
 62
    29
100
AcDb2dPolyline
 66
     1
 10
0.0
 20
0.0
 30
0.0
  0
VERTEX
  5
43
330
42
100
AcDbEntity
  8
_____1
 62
    29
100
AcDbVertex
100
AcDb2dVertex
 10
108.7630425075315
 20
-135.1056206259458
 30
0.0
  0
VERTEX
  5
44
330
42
100
AcDbEntity
  8
_____1
 62
    29
100
AcDbVertex
100
AcDb2dVertex
 10
106.5602484542627
 20
-137.5387193124035
 30
0.0
  0
SEQEND
  5
45
330
42
100
AcDbEntity
  8
_____1
  0
SPLINE
  5
46
330
1F
100
AcDbEntity
  8
_____1
100
AcDbSpline
210
0.0
220
0.0
230
1.0
 70
    11
 71
     3
 72
    17
 73
    13
 74
     0
 42
0.0000000001
 43
0.0000000001
 40
0.0
 40
0.0
 40
0.0
 40
0.0
 40
1.0
 40
1.0
 40
1.0
 40
2.0
 40
2.0
 40
2.0
 40
3.0
 40
3.0
 40
3.0
 40
4.0
 40
4.0
 40
4.0
 40
4.0
 10
108.0409504938231
 20
-133.6414550447146
 30
0.0
 10
108.0750569391271
 20
-133.7441188901751
 30
0.0
 10
108.2025254720813
 20
-133.8474717547326
 30
0.0
 10
108.3244818522592
 20
-133.8729654613234
 30
0.0
 10
108.4474717610826
 20
-133.8977701488172
 30
0.0
 10
108.5180962185302
 20
-133.8340358823401
 30
0.0
 10
108.4843342827748
 20
-133.7317165464282
 30
0.0
 10
108.4495388183737
 20
-133.6297417200648
 30
0.0
 10
108.3227593045165
 20
-133.5263888555073
 30
0.0
 10
108.2001139052416
 20
-133.501239658465
 30
0.0
 10
108.0781575250638
 20
-133.4764349709712
 30
0.0
 10
108.0071885580677
 20
-133.5387911992542
 30
0.0
 10
108.0409504938231
 20
-133.6414550447146
 30
0.0
  0
SPLINE
  5
47
330
1F
100
AcDbEntity
  8
_____1
 62
    29
100
AcDbSpline
210
0.0
220
0.0
230
1.0
 70
     8
 71
     3
 72
    14
 73
    10
 74
     0
 42
0.0000000001
 43
0.0000000001
 40
0.0
 40
0.0
 40
0.0
 40
0.0
 40
1.0
 40
1.0
 40
1.0
 40
2.0
 40
2.0
 40
2.0
 40
3.0
 40
3.0
 40
3.0
 40
3.0
 10
108.3244818522592
 20
-133.8729654613234
 30
0.0
 10
108.4474717610826
 20
-133.8977701488172
 30
0.0
 10
108.5180962185302
 20
-133.8340358823401
 30
0.0
 10
108.4843342827748
 20
-133.7317165464282
 30
0.0
 10
108.4495388183737
 20
-133.6297417200648
 30
0.0
 10
108.3227593045165
 20
-133.5263888555073
 30
0.0
 10
108.2001139052416
 20
-133.501239658465
 30
0.0
 10
108.0781575250638
 20
-133.4764349709712
 30
0.0
 10
108.0071885580677
 20
-133.5387911992542
 30
0.0
 10
108.0409504938231
 20
-133.6414550447146
 30
0.0
  0
POLYLINE
  5
48
330
1F
100
AcDbEntity
  8
_____1
 62
    29
100
AcDb2dPolyline
 66
     1
 10
0.0
 20
0.0
 30
0.0
  0
VERTEX
  5
49
330
48
100
AcDbEntity
  8
_____1
 62
    29
100
AcDbVertex
100
AcDb2dVertex
 10
105.9339300950443
 20
-135.9494967650578
 30
0.0
  0
VERTEX
  5
4A
330
48
100
AcDbEntity
  8
_____1
 62
    29
100
AcDbVertex
100
AcDb2dVertex
 10
108.0547308757641
 20
-133.5536051098408
 30
0.0
  0
SEQEND
  5
4B
330
48
100
AcDbEntity
  8
_____1
  0
POLYLINE
  5
4C
330
1F
100
AcDbEntity
  8
_____1
 62
    29
100
AcDb2dPolyline
 66
     1
 10
0.0
 20
0.0
 30
0.0
  0
VERTEX
  5
4D
330
4C
100
AcDbEntity
  8
_____1
 62
    29
100
AcDbVertex
100
AcDb2dVertex
 10
108.474688015416
 20
-133.8333468632431
 30
0.0
  0
VERTEX
  5
4E
330
4C
100
AcDbEntity
  8
_____1
 62
    29
100
AcDbVertex
100
AcDb2dVertex
 10
106.2443331982653
 20
-136.2977959186165
 30
0.0
  0
SEQEND
  5
4F
330
4C
100
AcDbEntity
  8
_____1
  0
POLYLINE
  5
50
330
1F
100
AcDbEntity
  8
_____1
 62
    29
100
AcDb2dPolyline
 66
     1
 10
0.0
 20
0.0
 30
0.0
  0
VERTEX
  5
51
330
50
100
AcDbEntity
  8
_____1
 62
    29
100
AcDbVertex
100
AcDb2dVertex
 10
105.1875501581649
 20
-134.580071309671
 30
0.0
  0
VERTEX
  5
52
330
50
100
AcDbEntity
  8
_____1
 62
    29
100
AcDbVertex
100
AcDb2dVertex
 10
105.7544406202628
 20
-133.9211967981169
 30
0.0
  0
SEQEND
  5
53
330
50
100
AcDbEntity
  8
_____1
  0
POLYLINE
  5
54
330
1F
100
AcDbEntity
  8
_____1
 62
    29
100
AcDb2dPolyline
 66
     1
 10
0.0
 20
0.0
 30
0.0
  0
VERTEX
  5
55
330
54
100
AcDbEntity
  8
_____1
 62
    29
100
AcDbVertex
100
AcDb2dVertex
 10
106.1578613015855
 20
-134.1971489464854
 30
0.0
  0
VERTEX
  5
56
330
54
100
AcDbEntity
  8
_____1
 62
    29
100
AcDbVertex
100
AcDb2dVertex
 10
105.5108723694556
 20
-134.9250976225187
 30
0.0
  0
SEQEND
  5
57
330
54
100
AcDbEntity
  8
_____1
  0
SPLINE
  5
58
330
1F
100
AcDbEntity
  8
_____1
100
AcDbSpline
210
0.0
220
0.0
230
1.0
 70
    11
 71
     3
 72
    17
 73
    13
 74
     0
 42
0.0000000001
 43
0.0000000001
 40
0.0
 40
0.0
 40
0.0
 40
0.0
 40
1.0
 40
1.0
 40
1.0
 40
2.0
 40
2.0
 40
2.0
 40
3.0
 40
3.0
 40
3.0
 40
4.0
 40
4.0
 40
4.0
 40
4.0
 10
106.1027397738215
 20
-130.902604133941
 30
0.0
 10
106.1368462191255
 20
-131.0049234698529
 30
0.0
 10
106.2636257329827
 20
-131.1082763344104
 30
0.0
 10
106.3862711322576
 20
-131.1334255314528
 30
0.0
 10
106.508572021984
 20
-131.157885709398
 30
0.0
 10
106.5795409889801
 20
-131.094840462018
 30
0.0
 10
106.5457790532247
 20
-130.9921766165575
 30
0.0
 10
106.5113280983722
 20
-130.8898572806456
 30
0.0
 10
106.3838595654179
 20
-130.7868489256366
 30
0.0
 10
106.2625922043371
 20
-130.7620442381428
 30
0.0
 10
106.1399468050622
 20
-130.737239550649
 30
0.0
 10
106.068288818969
 20
-130.8002847980291
 30
0.0
 10
106.1027397738215
 20
-130.902604133941
 30
0.0
  0
SPLINE
  5
59
330
1F
100
AcDbEntity
  8
_____1
 62
    29
100
AcDbSpline
210
0.0
220
0.0
230
1.0
 70
     8
 71
     3
 72
    14
 73
    10
 74
     0
 42
0.0000000001
 43
0.0000000001
 40
0.0
 40
0.0
 40
0.0
 40
0.0
 40
1.0
 40
1.0
 40
1.0
 40
2.0
 40
2.0
 40
2.0
 40
3.0
 40
3.0
 40
3.0
 40
3.0
 10
106.3862711322576
 20
-131.1334255314528
 30
0.0
 10
106.508572021984
 20
-131.157885709398
 30
0.0
 10
106.5795409889801
 20
-131.094840462018
 30
0.0
 10
106.5457790532247
 20
-130.9921766165575
 30
0.0
 10
106.5113280983722
 20
-130.8898572806456
 30
0.0
 10
106.3838595654179
 20
-130.7868489256366
 30
0.0
 10
106.2625922043371
 20
-130.7620442381428
 30
0.0
 10
106.1399468050622
 20
-130.737239550649
 30
0.0
 10
106.068288818969
 20
-130.8002847980291
 30
0.0
 10
106.1027397738215
 20
-130.902604133941
 30
0.0
  0
POLYLINE
  5
5A
330
1F
100
AcDbEntity
  8
_____1
 62
    29
100
AcDb2dPolyline
 66
     1
 10
0.0
 20
0.0
 30
0.0
  0
VERTEX
  5
5B
330
5A
100
AcDbEntity
  8
_____1
 62
    29
100
AcDbVertex
100
AcDb2dVertex
 10
104.091665284307
 20
-133.1022976012731
 30
0.0
  0
VERTEX
  5
5C
330
5A
100
AcDbEntity
  8
_____1
 62
    29
100
AcDbVertex
100
AcDb2dVertex
 10
106.1165201557625
 20
-130.8144096895186
 30
0.0
  0
SEQEND
  5
5D
330
5A
100
AcDbEntity
  8
_____1
  0
POLYLINE
  5
5E
330
1F
100
AcDbEntity
  8
_____1
 62
    29
100
AcDb2dPolyline
 66
     1
 10
0.0
 20
0.0
 30
0.0
  0
VERTEX
  5
5F
330
5E
100
AcDbEntity
  8
_____1
 62
    29
100
AcDbVertex
100
AcDb2dVertex
 10
106.5354437667689
 20
-131.0938069333724
 30
0.0
  0
VERTEX
  5
60
330
5E
100
AcDbEntity
  8
_____1
 62
    29
100
AcDbVertex
100
AcDb2dVertex
 10
104.4737263736212
 20
-133.3727375968652
 30
0.0
  0
SEQEND
  5
61
330
5E
100
AcDbEntity
  8
_____1
  0
SPLINE
  5
62
330
1F
100
AcDbEntity
  8
_____1
 62
    29
100
AcDbSpline
210
0.0
220
0.0
230
1.0
 70
     8
 71
     3
 72
    14
 73
    10
 74
     0
 42
0.0000000001
 43
0.0000000001
 40
0.0
 40
0.0
 40
0.0
 40
0.0
 40
1.0
 40
1.0
 40
1.0
 40
2.0
 40
2.0
 40
2.0
 40
3.0
 40
3.0
 40
3.0
 40
3.0
 10
104.9720594355625
 20
-139.3897691166283
 30
0.0
 10
105.4683254402128
 20
-138.9627495312315
 30
0.0
 10
105.8660617139849
 20
-138.5862005946937
 30
0.0
 10
106.1788763840456
 20
-138.2658067145655
 30
0.0
 10
106.9302517093786
 20
-137.4972059118062
 30
0.0
 10
106.1427028814504
 20
-137.0751817148632
 30
0.0
 10
105.8822536627655
 20
-137.3831732512445
 30
0.0
 10
105.530164904173
 20
-137.8000298049597
 30
0.0
 10
104.8866210675284
 20
-138.3483167514372
 30
0.0
 10
104.1242214366426
 20
-138.9353610221238
 30
0.0
  0
SPLINE
  5
63
330
1F
100
AcDbEntity
  8
_____1
100
AcDbSpline
210
0.0
220
0.0
230
1.0
 70
    11
 71
     3
 72
    17
 73
    13
 74
     0
 42
0.0000000001
 43
0.0000000001
 40
0.0
 40
0.0
 40
0.0
 40
0.0
 40
1.0
 40
1.0
 40
1.0
 40
2.0
 40
2.0
 40
2.0
 40
3.0
 40
3.0
 40
3.0
 40
4.0
 40
4.0
 40
4.0
 40
4.0
 10
109.0589762097144
 20
-136.2218315631668
 30
0.0
 10
109.0937716741154
 20
-136.3244954086272
 30
0.0
 10
109.2205511879726
 20
-136.4278482731847
 30
0.0
 10
109.3431965872475
 20
-136.4526529606785
 30
0.0
 10
109.4651529674254
 20
-136.4778021577208
 30
0.0
 10
109.5364664439701
 20
-136.4140678912437
 30
0.0
 10
109.5023599986661
 20
-136.3124375744288
 30
0.0
 10
109.4679090438136
 20
-136.2097737289684
 30
0.0
 10
109.3407850204079
 20
-136.1064208644109
 30
0.0
 10
109.2191731497785
 20
-136.0812716673686
 30
0.0
 10
109.0958387314066
 20
-136.0561224703262
 30
0.0
 10
109.0255587835075
 20
-136.1191677177063
 30
0.0
 10
109.0589762097144
 20
-136.2218315631668
 30
0.0
  0
SPLINE
  5
64
330
1F
100
AcDbEntity
  8
_____1
 62
    29
100
AcDbSpline
210
0.0
220
0.0
230
1.0
 70
     8
 71
     3
 72
    14
 73
    10
 74
     0
 42
0.0000000001
 43
0.0000000001
 40
0.0
 40
0.0
 40
0.0
 40
0.0
 40
1.0
 40
1.0
 40
1.0
 40
2.0
 40
2.0
 40
2.0
 40
3.0
 40
3.0
 40
3.0
 40
3.0
 10
109.3431965872475
 20
-136.4526529606785
 30
0.0
 10
109.4651529674254
 20
-136.4778021577208
 30
0.0
 10
109.5364664439701
 20
-136.4140678912437
 30
0.0
 10
109.5023599986661
 20
-136.3124375744288
 30
0.0
 10
109.4679090438136
 20
-136.2097737289684
 30
0.0
 10
109.3407850204079
 20
-136.1064208644109
 30
0.0
 10
109.2191731497785
 20
-136.0812716673686
 30
0.0
 10
109.0958387314066
 20
-136.0561224703262
 30
0.0
 10
109.0255587835075
 20
-136.1191677177063
 30
0.0
 10
109.0589762097144
 20
-136.2218315631668
 30
0.0
  0
POLYLINE
  5
65
330
1F
100
AcDbEntity
  8
_____1
 62
    29
100
AcDb2dPolyline
 66
     1
 10
0.0
 20
0.0
 30
0.0
  0
VERTEX
  5
66
330
65
100
AcDbEntity
  8
_____1
 62
    29
100
AcDbVertex
100
AcDb2dVertex
 10
106.9543673777753
 20
-138.5274617166702
 30
0.0
  0
VERTEX
  5
67
330
65
100
AcDbEntity
  8
_____1
 62
    29
100
AcDbVertex
100
AcDb2dVertex
 10
109.0727565916554
 20
-136.1343261378414
 30
0.0
  0
SEQEND
  5
68
330
65
100
AcDbEntity
  8
_____1
  0
POLYLINE
  5
69
330
1F
100
AcDbEntity
  8
_____1
 62
    29
100
AcDb2dPolyline
 66
     1
 10
0.0
 20
0.0
 30
0.0
  0
VERTEX
  5
6A
330
69
100
AcDbEntity
  8
_____1
 62
    29
100
AcDbVertex
100
AcDb2dVertex
 10
109.4927137313074
 20
-136.4137233816952
 30
0.0
  0
VERTEX
  5
6B
330
69
100
AcDbEntity
  8
_____1
 62
    29
100
AcDbVertex
100
AcDb2dVertex
 10
107.2885416398445
 20
-138.8476833420242
 30
0.0
  0
SEQEND
  5
6C
330
69
100
AcDbEntity
  8
_____1
  0
SPLINE
  5
6D
330
1F
100
AcDbEntity
  8
_____1
 62
    29
100
AcDbSpline
210
0.0
220
0.0
230
1.0
 70
     8
 71
     3
 72
    14
 73
    10
 74
     0
 42
0.0000000001
 43
0.0000000001
 40
0.0
 40
0.0
 40
0.0
 40
0.0
 40
1.0
 40
1.0
 40
1.0
 40
2.0
 40
2.0
 40
2.0
 40
3.0
 40
3.0
 40
3.0
 40
3.0
 10
106.2898084586706
 20
-140.1743896133939
 30
0.0
 10
106.5251084803132
 20
-139.9566595787261
 30
0.0
 10
106.7304361712341
 20
-139.7561550214846
 30
0.0
 10
106.9085476078215
 20
-139.5739094703149
 30
0.0
 10
107.659578423606
 20
-138.8049641580071
 30
0.0
 10
106.8716850861293
 20
-138.382939961064
 30
0.0
 10
106.6112358674444
 20
-138.6919650260909
 30
0.0
 10
106.3724907503166
 20
-138.9746351106556
 30
0.0
 10
105.9931857373906
 20
-139.3274128883452
 30
0.0
 10
105.530164904173
 20
-139.7165364234042
 30
0.0
  0
SPLINE
  5
6E
330
1F
100
AcDbEntity
  8
_____1
 62
    29
100
AcDbSpline
210
0.0
220
0.0
230
1.0
 70
     8
 71
     3
 72
    14
 73
    10
 74
     0
 42
0.0000000001
 43
0.0000000001
 40
0.0
 40
0.0
 40
0.0
 40
0.0
 40
1.0
 40
1.0
 40
1.0
 40
2.0
 40
2.0
 40
2.0
 40
3.0
 40
3.0
 40
3.0
 40
3.0
 10
103.8243258746516
 20
-138.7610391905702
 30
0.0
 10
104.7460611717302
 20
-138.045665113058
 30
0.0
 10
105.4388698738139
 20
-137.4338161548777
 30
0.0
 10
105.8967230638036
 20
-136.9649386593352
 30
0.0
 10
106.6484428986851
 20
-136.1956488374789
 30
0.0
 10
105.8605495612085
 20
-135.7736246405358
 30
0.0
 10
105.6004448520721
 20
-136.0826497055627
 30
0.0
 10
105.1489650887301
 20
-136.6169840153249
 30
0.0
 10
104.1498873980077
 20
-137.4293375307468
 30
0.0
 10
103.0321261678184
 20
-138.265462205017
 30
0.0
  0
SPLINE
  5
6F
330
1F
100
AcDbEntity
  8
_____1
 62
    29
100
AcDbSpline
210
0.0
220
0.0
230
1.0
 70
     8
 71
     3
 72
    14
 73
    10
 74
     0
 42
0.0000000001
 43
0.0000000001
 40
0.0
 40
0.0
 40
0.0
 40
0.0
 40
1.0
 40
1.0
 40
1.0
 40
2.0
 40
2.0
 40
2.0
 40
3.0
 40
3.0
 40
3.0
 40
3.0
 10
102.5260416410352
 20
-137.9581596877327
 30
0.0
 10
103.7342366277123
 20
-136.9907768754745
 30
0.0
 10
104.605501275932
 20
-136.1704996404366
 30
0.0
 10
105.1498263626014
 20
-135.5858669365896
 30
0.0
 10
105.8815646436685
 20
-134.7996961468556
 30
0.0
 10
105.0841972936074
 20
-134.3966199750814
 30
0.0
 10
104.8311550302158
 20
-134.7111571928847
 30
0.0
 10
104.310256592846
 20
-135.3591796536602
 30
0.0
 10
103.026614015042
 20
-136.418202005826
 30
0.0
 10
101.6883666737967
 20
-137.4444959508819
 30
0.0
  0
SPLINE
  5
70
330
1F
100
AcDbEntity
  8
_____1
 62
    29
100
AcDbSpline
210
0.0
220
0.0
230
1.0
 70
     8
 71
     3
 72
    14
 73
    10
 74
     0
 42
0.0000000001
 43
0.0000000001
 40
0.0
 40
0.0
 40
0.0
 40
0.0
 40
1.0
 40
1.0
 40
1.0
 40
2.0
 40
2.0
 40
2.0
 40
3.0
 40
3.0
 40
3.0
 40
3.0
 10
101.1259548358296
 20
-137.0824164153822
 30
0.0
 10
102.5362046727167
 20
-135.8494167412113
 30
0.0
 10
103.4303792059132
 20
-134.7352728612815
 30
0.0
 10
104.0742675521064
 20
-134.0758815854047
 30
0.0
 10
104.8254706226652
 20
-133.3076252921939
 30
0.0
 10
104.0384385590598
 20
-132.8852565857023
 30
0.0
 10
103.7773003212779
 20
-133.1935926316322
 30
0.0
 10
103.1334119750847
 20
-133.955992262518
 30
0.0
 10
101.6365179867437
 20
-135.3736490546983
 30
0.0
 10
100.179242596483
 20
-136.5883897227974
 30
0.0
  0
POLYLINE
  5
71
330
1F
100
AcDbEntity
  8
_____1
 62
    29
100
AcDb2dPolyline
 66
     1
 10
0.0
 20
0.0
 30
0.0
  0
VERTEX
  5
72
330
71
100
AcDbEntity
  8
_____1
 62
    29
100
AcDbVertex
100
AcDb2dVertex
 10
100.4555392544
 20
-136.86571990936
 30
0.0
  0
VERTEX
  5
73
330
71
100
AcDbEntity
  8
_____1
 62
    29
100
AcDbVertex
100
AcDb2dVertex
 10
100.7695597078805
 20
-136.9170518320902
 30
0.0
  0
SEQEND
  5
74
330
71
100
AcDbEntity
  8
_____1
  0
POLYLINE
  5
75
330
1F
100
AcDbEntity
  8
_____1
 62
    29
100
AcDb2dPolyline
 66
     1
 10
0.0
 20
0.0
 30
0.0
  0
VERTEX
  5
76
330
75
100
AcDbEntity
  8
_____1
 62
    29
100
AcDbVertex
100
AcDb2dVertex
 10
100.8389783819083
 20
-136.2073621621287
 30
0.0
  0
VERTEX
  5
77
330
75
100
AcDbEntity
  8
_____1
 62
    29
100
AcDbVertex
100
AcDb2dVertex
 10
101.5875976308531
 20
-136.3300075614036
 30
0.0
  0
SEQEND
  5
78
330
75
100
AcDbEntity
  8
_____1
  0
POLYLINE
  5
79
330
1F
100
AcDbEntity
  8
_____1
 62
    29
100
AcDb2dPolyline
 66
     1
 10
0.0
 20
0.0
 30
0.0
  0
VERTEX
  5
7A
330
79
100
AcDbEntity
  8
_____1
 62
    29
100
AcDbVertex
100
AcDb2dVertex
 10
101.4973361291396
 20
-135.5748426310369
 30
0.0
  0
VERTEX
  5
7B
330
79
100
AcDbEntity
  8
_____1
 62
    29
100
AcDbVertex
100
AcDb2dVertex
 10
102.2459553780843
 20
-135.6971435207632
 30
0.0
  0
SEQEND
  5
7C
330
79
100
AcDbEntity
  8
_____1
  0
POLYLINE
  5
7D
330
1F
100
AcDbEntity
  8
_____1
 62
    29
100
AcDb2dPolyline
 66
     1
 10
0.0
 20
0.0
 30
0.0
  0
VERTEX
  5
7E
330
7D
100
AcDbEntity
  8
_____1
 62
    29
100
AcDbVertex
100
AcDb2dVertex
 10
102.224079021753
 20
-134.908216654641
 30
0.0
  0
VERTEX
  5
7F
330
7D
100
AcDbEntity
  8
_____1
 62
    29
100
AcDbVertex
100
AcDb2dVertex
 10
102.9725260159235
 20
-135.0301730348189
 30
0.0
  0
SEQEND
  5
80
330
7D
100
AcDbEntity
  8
_____1
  0
POLYLINE
  5
81
330
1F
100
AcDbEntity
  8
_____1
 62
    29
100
AcDb2dPolyline
 66
     1
 10
0.0
 20
0.0
 30
0.0
  0
VERTEX
  5
82
330
81
100
AcDbEntity
  8
_____1
 62
    29
100
AcDbVertex
100
AcDb2dVertex
 10
102.8176689738616
 20
-134.5171983170652
 30
0.0
  0
VERTEX
  5
83
330
81
100
AcDbEntity
  8
_____1
 62
    29
100
AcDbVertex
100
AcDb2dVertex
 10
103.5662882228063
 20
-134.639154697243
 30
0.0
  0
SEQEND
  5
84
330
81
100
AcDbEntity
  8
_____1
  0
POLYLINE
  5
85
330
1F
100
AcDbEntity
  8
_____1
 62
    29
100
AcDb2dPolyline
 66
     1
 10
0.0
 20
0.0
 30
0.0
  0
VERTEX
  5
86
330
85
100
AcDbEntity
  8
_____1
 62
    29
100
AcDbVertex
100
AcDb2dVertex
 10
103.2942979342459
 20
-133.8884683910071
 30
0.0
  0
VERTEX
  5
87
330
85
100
AcDbEntity
  8
_____1
 62
    29
100
AcDbVertex
100
AcDb2dVertex
 10
103.9071804210718
 20
-134.0648572798519
 30
0.0
  0
SEQEND
  5
88
330
85
100
AcDbEntity
  8
_____1
  0
POLYLINE
  5
89
330
1F
100
AcDbEntity
  8
_____1
 62
    29
100
AcDb2dPolyline
 66
     1
 10
0.0
 20
0.0
 30
0.0
  0
VERTEX
  5
8A
330
89
100
AcDbEntity
  8
_____1
 62
    29
100
AcDbVertex
100
AcDb2dVertex
 10
104.1128526215412
 20
-133.0613009649986
 30
0.0
  0
VERTEX
  5
8B
330
89
100
AcDbEntity
  8
_____1
 62
    29
100
AcDbVertex
100
AcDb2dVertex
 10
104.7100599239093
 20
-133.1732665682692
 30
0.0
  0
SEQEND
  5
8C
330
89
100
AcDbEntity
  8
_____1
  0
POLYLINE
  5
8D
330
1F
100
AcDbEntity
  8
_____1
 62
    29
100
AcDb2dPolyline
 66
     1
 10
0.0
 20
0.0
 30
0.0
  0
VERTEX
  5
8E
330
8D
100
AcDbEntity
  8
_____1
 62
    29
100
AcDbVertex
100
AcDb2dVertex
 10
104.3043999305211
 20
-132.8304795674868
 30
0.0
  0
VERTEX
  5
8F
330
8D
100
AcDbEntity
  8
_____1
 62
    29
100
AcDbVertex
100
AcDb2dVertex
 10
104.9016072328892
 20
-132.9424451707575
 30
0.0
  0
SEQEND
  5
90
330
8D
100
AcDbEntity
  8
_____1
  0
POLYLINE
  5
91
330
1F
100
AcDbEntity
  8
_____1
 62
    29
100
AcDb2dPolyline
 66
     1
 10
0.0
 20
0.0
 30
0.0
  0
VERTEX
  5
92
330
91
100
AcDbEntity
  8
_____1
 62
    29
100
AcDbVertex
100
AcDb2dVertex
 10
104.536599366227
 20
-132.5462591899537
 30
0.0
  0
VERTEX
  5
93
330
91
100
AcDbEntity
  8
_____1
 62
    29
100
AcDbVertex
100
AcDb2dVertex
 10
105.133806668595
 20
-132.6582247932243
 30
0.0
  0
SEQEND
  5
94
330
91
100
AcDbEntity
  8
_____1
  0
POLYLINE
  5
95
330
1F
100
AcDbEntity
  8
_____1
 62
    29
100
AcDb2dPolyline
 66
     1
 10
0.0
 20
0.0
 30
0.0
  0
VERTEX
  5
96
330
95
100
AcDbEntity
  8
_____1
 62
    29
100
AcDbVertex
100
AcDb2dVertex
 10
104.7422715666964
 20
-132.2758191943616
 30
0.0
  0
VERTEX
  5
97
330
95
100
AcDbEntity
  8
_____1
 62
    29
100
AcDbVertex
100
AcDb2dVertex
 10
105.3394788690644
 20
-132.3874402880837
 30
0.0
  0
SEQEND
  5
98
330
95
100
AcDbEntity
  8
_____1
  0
POLYLINE
  5
99
330
1F
100
AcDbEntity
  8
_____1
 62
    29
100
AcDb2dPolyline
 66
     1
 10
0.0
 20
0.0
 30
0.0
  0
VERTEX
  5
9A
330
99
100
AcDbEntity
  8
_____1
 62
    29
100
AcDbVertex
100
AcDb2dVertex
 10
105.0290757658434
 20
-132.0329399626515
 30
0.0
  0
VERTEX
  5
9B
330
99
100
AcDbEntity
  8
_____1
 62
    29
100
AcDbVertex
100
AcDb2dVertex
 10
105.6262830682115
 20
-132.1449055659221
 30
0.0
  0
SEQEND
  5
9C
330
99
100
AcDbEntity
  8
_____1
  0
POLYLINE
  5
9D
330
1F
100
AcDbEntity
  8
_____1
 62
    29
100
AcDb2dPolyline
 66
     1
 10
0.0
 20
0.0
 30
0.0
  0
VERTEX
  5
9E
330
9D
100
AcDbEntity
  8
_____1
 62
    29
100
AcDbVertex
100
AcDb2dVertex
 10
105.2209675843718
 20
-131.7345946936288
 30
0.0
  0
VERTEX
  5
9F
330
9D
100
AcDbEntity
  8
_____1
 62
    29
100
AcDbVertex
100
AcDb2dVertex
 10
105.8181748867399
 20
-131.846904806448
 30
0.0
  0
SEQEND
  5
A0
330
9D
100
AcDbEntity
  8
_____1
  0
POLYLINE
  5
A1
330
1F
100
AcDbEntity
  8
_____1
 62
    29
100
AcDb2dPolyline
 66
     1
 10
0.0
 20
0.0
 30
0.0
  0
VERTEX
  5
A2
330
A1
100
AcDbEntity
  8
_____1
 62
    29
100
AcDbVertex
100
AcDb2dVertex
 10
105.5618597826373
 20
-131.4651882266823
 30
0.0
  0
VERTEX
  5
A3
330
A1
100
AcDbEntity
  8
_____1
 62
    29
100
AcDbVertex
100
AcDb2dVertex
 10
106.1592393397796
 20
-131.5768093204044
 30
0.0
  0
SEQEND
  5
A4
330
A1
100
AcDbEntity
  8
_____1
  0
POLYLINE
  5
A5
330
1F
100
AcDbEntity
  8
_____1
 62
    29
100
AcDb2dPolyline
 66
     1
 10
0.0
 20
0.0
 30
0.0
  0
VERTEX
  5
A6
330
A5
100
AcDbEntity
  8
_____1
 62
    29
100
AcDbVertex
100
AcDb2dVertex
 10
105.7544406202628
 20
-131.1978488170269
 30
0.0
  0
VERTEX
  5
A7
330
A5
100
AcDbEntity
  8
_____1
 62
    29
100
AcDbVertex
100
AcDb2dVertex
 10
106.2560465229152
 20
-131.2915554142257
 30
0.0
  0
SEQEND
  5
A8
330
A5
100
AcDbEntity
  8
_____1
  0
POLYLINE
  5
A9
330
1F
100
AcDbEntity
  8
_____1
 62
    29
100
AcDb2dPolyline
 66
     1
 10
0.0
 20
0.0
 30
0.0
  0
VERTEX
  5
AA
330
A9
100
AcDbEntity
  8
_____1
 62
    29
100
AcDbVertex
100
AcDb2dVertex
 10
106.0000759283611
 20
-130.9777072155195
 30
0.0
  0
VERTEX
  5
AB
330
A9
100
AcDbEntity
  8
_____1
 62
    29
100
AcDbVertex
100
AcDb2dVertex
 10
106.5971109759549
 20
-131.0896728187901
 30
0.0
  0
SEQEND
  5
AC
330
A9
100
AcDbEntity
  8
_____1
  0
POLYLINE
  5
AD
330
1F
100
AcDbEntity
  8
_____1
 62
    29
100
AcDb2dPolyline
 66
     1
 10
0.0
 20
0.0
 30
0.0
  0
VERTEX
  5
AE
330
AD
100
AcDbEntity
  8
_____1
 62
    29
100
AcDbVertex
100
AcDb2dVertex
 10
105.0964273825801
 20
-134.6429443022768
 30
0.0
  0
VERTEX
  5
AF
330
AD
100
AcDbEntity
  8
_____1
 62
    29
100
AcDbVertex
100
AcDb2dVertex
 10
105.6934624301739
 20
-134.7542208864503
 30
0.0
  0
SEQEND
  5
B0
330
AD
100
AcDbEntity
  8
_____1
  0
POLYLINE
  5
B1
330
1F
100
AcDbEntity
  8
_____1
 62
    29
100
AcDb2dPolyline
 66
     1
 10
0.0
 20
0.0
 30
0.0
  0
VERTEX
  5
B2
330
B1
100
AcDbEntity
  8
_____1
 62
    29
100
AcDbVertex
100
AcDb2dVertex
 10
105.28797469156
 20
-134.4124674143136
 30
0.0
  0
VERTEX
  5
B3
330
B1
100
AcDbEntity
  8
_____1
 62
    29
100
AcDbVertex
100
AcDb2dVertex
 10
105.8850097391538
 20
-134.5240885080356
 30
0.0
  0
SEQEND
  5
B4
330
B1
100
AcDbEntity
  8
_____1
  0
POLYLINE
  5
B5
330
1F
100
AcDbEntity
  8
_____1
 62
    29
100
AcDb2dPolyline
 66
     1
 10
0.0
 20
0.0
 30
0.0
  0
VERTEX
  5
B6
330
B5
100
AcDbEntity
  8
_____1
 62
    29
100
AcDbVertex
100
AcDb2dVertex
 10
105.5208631463628
 20
-134.128591546329
 30
0.0
  0
VERTEX
  5
B7
330
B5
100
AcDbEntity
  8
_____1
 62
    29
100
AcDbVertex
100
AcDb2dVertex
 10
106.1178981939566
 20
-134.2398681305025
 30
0.0
  0
SEQEND
  5
B8
330
B5
100
AcDbEntity
  8
_____1
  0
POLYLINE
  5
B9
330
1F
100
AcDbEntity
  8
_____1
 62
    29
100
AcDb2dPolyline
 66
     1
 10
0.0
 20
0.0
 30
0.0
  0
VERTEX
  5
BA
330
B9
100
AcDbEntity
  8
_____1
 62
    29
100
AcDbVertex
100
AcDb2dVertex
 10
106.068288818969
 20
-135.8576849703759
 30
0.0
  0
VERTEX
  5
BB
330
B9
100
AcDbEntity
  8
_____1
 62
    29
100
AcDbVertex
100
AcDb2dVertex
 10
106.6656683761114
 20
-135.9696505736465
 30
0.0
  0
SEQEND
  5
BC
330
B9
100
AcDbEntity
  8
_____1
  0
POLYLINE
  5
BD
330
1F
100
AcDbEntity
  8
_____1
 62
    29
100
AcDb2dPolyline
 66
     1
 10
0.0
 20
0.0
 30
0.0
  0
VERTEX
  5
BE
330
BD
100
AcDbEntity
  8
_____1
 62
    29
100
AcDbVertex
100
AcDb2dVertex
 10
106.2601806374975
 20
-135.6275525919612
 30
0.0
  0
VERTEX
  5
BF
330
BD
100
AcDbEntity
  8
_____1
 62
    29
100
AcDbVertex
100
AcDb2dVertex
 10
106.8572156850913
 20
-135.7388291761347
 30
0.0
  0
SEQEND
  5
C0
330
BD
100
AcDbEntity
  8
_____1
  0
POLYLINE
  5
C1
330
1F
100
AcDbEntity
  8
_____1
 62
    29
100
AcDb2dPolyline
 66
     1
 10
0.0
 20
0.0
 30
0.0
  0
VERTEX
  5
C2
330
C1
100
AcDbEntity
  8
_____1
 62
    29
100
AcDbVertex
100
AcDb2dVertex
 10
106.4923800732033
 20
-135.3429877048795
 30
0.0
  0
VERTEX
  5
C3
330
C1
100
AcDbEntity
  8
_____1
 62
    29
100
AcDbVertex
100
AcDb2dVertex
 10
107.0894151207971
 20
-135.4546087986016
 30
0.0
  0
SEQEND
  5
C4
330
C1
100
AcDbEntity
  8
_____1
  0
POLYLINE
  5
C5
330
1F
100
AcDbEntity
  8
_____1
 62
    29
100
AcDb2dPolyline
 66
     1
 10
0.0
 20
0.0
 30
0.0
  0
VERTEX
  5
C6
330
C5
100
AcDbEntity
  8
_____1
 62
    29
100
AcDbVertex
100
AcDb2dVertex
 10
106.6980522736727
 20
-135.0725477092874
 30
0.0
  0
VERTEX
  5
C7
330
C5
100
AcDbEntity
  8
_____1
 62
    29
100
AcDbVertex
100
AcDb2dVertex
 10
107.294742811718
 20
-135.184513312558
 30
0.0
  0
SEQEND
  5
C8
330
C5
100
AcDbEntity
  8
_____1
  0
POLYLINE
  5
C9
330
1F
100
AcDbEntity
  8
_____1
 62
    29
100
AcDb2dPolyline
 66
     1
 10
0.0
 20
0.0
 30
0.0
  0
VERTEX
  5
CA
330
C9
100
AcDbEntity
  8
_____1
 62
    29
100
AcDbVertex
100
AcDb2dVertex
 10
106.9846842180455
 20
-134.8293239680288
 30
0.0
  0
VERTEX
  5
CB
330
C9
100
AcDbEntity
  8
_____1
 62
    29
100
AcDbVertex
100
AcDb2dVertex
 10
107.5820637751878
 20
-134.9412895712994
 30
0.0
  0
SEQEND
  5
CC
330
C9
100
AcDbEntity
  8
_____1
  0
POLYLINE
  5
CD
330
1F
100
AcDbEntity
  8
_____1
 62
    29
100
AcDb2dPolyline
 66
     1
 10
0.0
 20
0.0
 30
0.0
  0
VERTEX
  5
CE
330
CD
100
AcDbEntity
  8
_____1
 62
    29
100
AcDbVertex
100
AcDb2dVertex
 10
107.1762315270254
 20
-134.5313232085547
 30
0.0
  0
VERTEX
  5
CF
330
CD
100
AcDbEntity
  8
_____1
 62
    29
100
AcDbVertex
100
AcDb2dVertex
 10
107.7736110841677
 20
-134.6432888118253
 30
0.0
  0
SEQEND
  5
D0
330
CD
100
AcDbEntity
  8
_____1
  0
POLYLINE
  5
D1
330
1F
100
AcDbEntity
  8
_____1
 62
    29
100
AcDb2dPolyline
 66
     1
 10
0.0
 20
0.0
 30
0.0
  0
VERTEX
  5
D2
330
D1
100
AcDbEntity
  8
_____1
 62
    29
100
AcDbVertex
100
AcDb2dVertex
 10
107.5179849991622
 20
-134.2615722320596
 30
0.0
  0
VERTEX
  5
D3
330
D1
100
AcDbEntity
  8
_____1
 62
    29
100
AcDbVertex
100
AcDb2dVertex
 10
108.115020046756
 20
-134.3731933257817
 30
0.0
  0
SEQEND
  5
D4
330
D1
100
AcDbEntity
  8
_____1
  0
POLYLINE
  5
D5
330
1F
100
AcDbEntity
  8
_____1
 62
    29
100
AcDb2dPolyline
 66
     1
 10
0.0
 20
0.0
 30
0.0
  0
VERTEX
  5
D6
330
D5
100
AcDbEntity
  8
_____1
 62
    29
100
AcDbVertex
100
AcDb2dVertex
 10
107.6144476727492
 20
-133.9763183258809
 30
0.0
  0
VERTEX
  5
D7
330
D5
100
AcDbEntity
  8
_____1
 62
    29
100
AcDbVertex
100
AcDb2dVertex
 10
108.2118272298915
 20
-134.0882839291515
 30
0.0
  0
SEQEND
  5
D8
330
D5
100
AcDbEntity
  8
_____1
  0
POLYLINE
  5
D9
330
1F
100
AcDbEntity
  8
_____1
 62
    29
100
AcDb2dPolyline
 66
     1
 10
0.0
 20
0.0
 30
0.0
  0
VERTEX
  5
DA
330
D9
100
AcDbEntity
  8
_____1
 62
    29
100
AcDbVertex
100
AcDb2dVertex
 10
107.9555121257889
 20
-133.7744357304453
 30
0.0
  0
VERTEX
  5
DB
330
D9
100
AcDbEntity
  8
_____1
 62
    29
100
AcDbVertex
100
AcDb2dVertex
 10
108.5525471733827
 20
-133.8860568241674
 30
0.0
  0
SEQEND
  5
DC
330
D9
100
AcDbEntity
  8
_____1
  0
POLYLINE
  5
DD
330
1F
100
AcDbEntity
  8
_____1
 62
    29
100
AcDb2dPolyline
 66
     1
 10
0.0
 20
0.0
 30
0.0
  0
VERTEX
  5
DE
330
DD
100
AcDbEntity
  8
_____1
 62
    29
100
AcDbVertex
100
AcDb2dVertex
 10
106.3060004074513
 20
-137.1633761592855
 30
0.0
  0
VERTEX
  5
DF
330
DD
100
AcDbEntity
  8
_____1
 62
    29
100
AcDbVertex
100
AcDb2dVertex
 10
106.9030354550451
 20
-137.2753417625562
 30
0.0
  0
SEQEND
  5
E0
330
DD
100
AcDbEntity
  8
_____1
  0
POLYLINE
  5
E1
330
1F
100
AcDbEntity
  8
_____1
 62
    29
100
AcDb2dPolyline
 66
     1
 10
0.0
 20
0.0
 30
0.0
  0
VERTEX
  5
E2
330
E1
100
AcDbEntity
  8
_____1
 62
    29
100
AcDbVertex
100
AcDb2dVertex
 10
106.4975477164312
 20
-136.9332437808709
 30
0.0
  0
VERTEX
  5
E3
330
E1
100
AcDbEntity
  8
_____1
 62
    29
100
AcDbVertex
100
AcDb2dVertex
 10
107.0949272735735
 20
-137.0448648745929
 30
0.0
  0
SEQEND
  5
E4
330
E1
100
AcDbEntity
  8
_____1
  0
POLYLINE
  5
E5
330
1F
100
AcDbEntity
  8
_____1
 62
    29
100
AcDb2dPolyline
 66
     1
 10
0.0
 20
0.0
 30
0.0
  0
VERTEX
  5
E6
330
E5
100
AcDbEntity
  8
_____1
 62
    29
100
AcDbVertex
100
AcDb2dVertex
 10
106.7300916616855
 20
-136.6493679128863
 30
0.0
  0
VERTEX
  5
E7
330
E5
100
AcDbEntity
  8
_____1
 62
    29
100
AcDbVertex
100
AcDb2dVertex
 10
107.3271267092793
 20
-136.7609890066084
 30
0.0
  0
SEQEND
  5
E8
330
E5
100
AcDbEntity
  8
_____1
  0
POLYLINE
  5
E9
330
1F
100
AcDbEntity
  8
_____1
 62
    29
100
AcDb2dPolyline
 66
     1
 10
0.0
 20
0.0
 30
0.0
  0
VERTEX
  5
EA
330
E9
100
AcDbEntity
  8
_____1
 62
    29
100
AcDbVertex
100
AcDb2dVertex
 10
106.9350748430579
 20
-136.3782388981971
 30
0.0
  0
VERTEX
  5
EB
330
E9
100
AcDbEntity
  8
_____1
 62
    29
100
AcDbVertex
100
AcDb2dVertex
 10
107.5324544002002
 20
-136.4898599919192
 30
0.0
  0
SEQEND
  5
EC
330
E9
100
AcDbEntity
  8
_____1
  0
POLYLINE
  5
ED
330
1F
100
AcDbEntity
  8
_____1
 62
    29
100
AcDb2dPolyline
 66
     1
 10
0.0
 20
0.0
 30
0.0
  0
VERTEX
  5
EE
330
ED
100
AcDbEntity
  8
_____1
 62
    29
100
AcDbVertex
100
AcDb2dVertex
 10
107.2223958065277
 20
-136.1350151569385
 30
0.0
  0
VERTEX
  5
EF
330
ED
100
AcDbEntity
  8
_____1
 62
    29
100
AcDbVertex
100
AcDb2dVertex
 10
107.8194308541215
 20
-136.2473252697576
 30
0.0
  0
SEQEND
  5
F0
330
ED
100
AcDbEntity
  8
_____1
  0
POLYLINE
  5
F1
330
1F
100
AcDbEntity
  8
_____1
 62
    29
100
AcDb2dPolyline
 66
     1
 10
0.0
 20
0.0
 30
0.0
  0
VERTEX
  5
F2
330
F1
100
AcDbEntity
  8
_____1
 62
    29
100
AcDbVertex
100
AcDb2dVertex
 10
107.4139431155076
 20
-135.8370143974644
 30
0.0
  0
VERTEX
  5
F3
330
F1
100
AcDbEntity
  8
_____1
 62
    29
100
AcDbVertex
100
AcDb2dVertex
 10
108.0109781631014
 20
-135.948980000735
 30
0.0
  0
SEQEND
  5
F4
330
F1
100
AcDbEntity
  8
_____1
  0
POLYLINE
  5
F5
330
1F
100
AcDbEntity
  8
_____1
 62
    29
100
AcDb2dPolyline
 66
     1
 10
0.0
 20
0.0
 30
0.0
  0
VERTEX
  5
F6
330
F5
100
AcDbEntity
  8
_____1
 62
    29
100
AcDbVertex
100
AcDb2dVertex
 10
107.7553520780959
 20
-135.5676079305178
 30
0.0
  0
VERTEX
  5
F7
330
F5
100
AcDbEntity
  8
_____1
 62
    29
100
AcDbVertex
100
AcDb2dVertex
 10
108.3523871256897
 20
-135.6788845146914
 30
0.0
  0
SEQEND
  5
F8
330
F5
100
AcDbEntity
  8
_____1
  0
POLYLINE
  5
F9
330
1F
100
AcDbEntity
  8
_____1
 62
    29
100
AcDb2dPolyline
 66
     1
 10
0.0
 20
0.0
 30
0.0
  0
VERTEX
  5
FA
330
F9
100
AcDbEntity
  8
_____1
 62
    29
100
AcDbVertex
100
AcDb2dVertex
 10
107.8521592612314
 20
-135.2826985338877
 30
0.0
  0
VERTEX
  5
FB
330
F9
100
AcDbEntity
  8
_____1
 62
    29
100
AcDbVertex
100
AcDb2dVertex
 10
108.4495388183737
 20
-135.3946641371583
 30
0.0
  0
SEQEND
  5
FC
330
F9
100
AcDbEntity
  8
_____1
  0
POLYLINE
  5
FD
330
1F
100
AcDbEntity
  8
_____1
 62
    29
100
AcDb2dPolyline
 66
     1
 10
0.0
 20
0.0
 30
0.0
  0
VERTEX
  5
FE
330
FD
100
AcDbEntity
  8
_____1
 62
    29
100
AcDbVertex
100
AcDb2dVertex
 10
108.1932237142711
 20
-135.0811604480006
 30
0.0
  0
VERTEX
  5
FF
330
FD
100
AcDbEntity
  8
_____1
 62
    29
100
AcDbVertex
100
AcDb2dVertex
 10
108.7902587618649
 20
-135.1927815417226
 30
0.0
  0
SEQEND
  5
100
330
FD
100
AcDbEntity
  8
_____1
  0
POLYLINE
  5
101
330
1F
100
AcDbEntity
  8
_____1
 62
    29
100
AcDb2dPolyline
 66
     1
 10
0.0
 20
0.0
 30
0.0
  0
VERTEX
  5
102
330
101
100
AcDbEntity
  8
_____1
 62
    29
100
AcDbVertex
100
AcDb2dVertex
 10
107.073567681565
 20
-138.4449516797985
 30
0.0
  0
VERTEX
  5
103
330
101
100
AcDbEntity
  8
_____1
 62
    29
100
AcDbVertex
100
AcDb2dVertex
 10
107.6709472387073
 20
-138.5569172830691
 30
0.0
  0
SEQEND
  5
104
330
101
100
AcDbEntity
  8
_____1
  0
POLYLINE
  5
105
330
1F
100
AcDbEntity
  8
_____1
 62
    29
100
AcDb2dPolyline
 66
     1
 10
0.0
 20
0.0
 30
0.0
  0
VERTEX
  5
106
330
105
100
AcDbEntity
  8
_____1
 62
    29
100
AcDbVertex
100
AcDb2dVertex
 10
107.2651149905448
 20
-138.2148193013838
 30
0.0
  0
VERTEX
  5
107
330
105
100
AcDbEntity
  8
_____1
 62
    29
100
AcDbVertex
100
AcDb2dVertex
 10
107.8624945476872
 20
-138.3264403951059
 30
0.0
  0
SEQEND
  5
108
330
105
100
AcDbEntity
  8
_____1
  0
POLYLINE
  5
109
330
1F
100
AcDbEntity
  8
_____1
 62
    29
100
AcDb2dPolyline
 66
     1
 10
0.0
 20
0.0
 30
0.0
  0
VERTEX
  5
10A
330
109
100
AcDbEntity
  8
_____1
 62
    29
100
AcDbVertex
100
AcDb2dVertex
 10
107.4980034453477
 20
-137.9305989238507
 30
0.0
  0
VERTEX
  5
10B
330
109
100
AcDbEntity
  8
_____1
 62
    29
100
AcDbVertex
100
AcDb2dVertex
 10
108.0950384929415
 20
-138.0425645271213
 30
0.0
  0
SEQEND
  5
10C
330
109
100
AcDbEntity
  8
_____1
  0
POLYLINE
  5
10D
330
1F
100
AcDbEntity
  8
_____1
 62
    29
100
AcDb2dPolyline
 66
     1
 10
0.0
 20
0.0
 30
0.0
  0
VERTEX
  5
10E
330
10D
100
AcDbEntity
  8
_____1
 62
    29
100
AcDbVertex
100
AcDb2dVertex
 10
107.7033311362686
 20
-137.6598144187101
 30
0.0
  0
VERTEX
  5
10F
330
10D
100
AcDbEntity
  8
_____1
 62
    29
100
AcDbVertex
100
AcDb2dVertex
 10
108.3003661838624
 20
-137.7717800219807
 30
0.0
  0
SEQEND
  5
110
330
10D
100
AcDbEntity
  8
_____1
  0
POLYLINE
  5
111
330
1F
100
AcDbEntity
  8
_____1
 62
    29
100
AcDb2dPolyline
 66
     1
 10
0.0
 20
0.0
 30
0.0
  0
VERTEX
  5
112
330
111
100
AcDbEntity
  8
_____1
 62
    29
100
AcDbVertex
100
AcDb2dVertex
 10
107.9903075901899
 20
-137.4165906774514
 30
0.0
  0
VERTEX
  5
113
330
111
100
AcDbEntity
  8
_____1
 62
    29
100
AcDbVertex
100
AcDb2dVertex
 10
108.5873426377837
 20
-137.528556280722
 30
0.0
  0
SEQEND
  5
114
330
111
100
AcDbEntity
  8
_____1
  0
POLYLINE
  5
115
330
1F
100
AcDbEntity
  8
_____1
 62
    29
100
AcDb2dPolyline
 66
     1
 10
0.0
 20
0.0
 30
0.0
  0
VERTEX
  5
116
330
115
100
AcDbEntity
  8
_____1
 62
    29
100
AcDbVertex
100
AcDb2dVertex
 10
108.1818548991698
 20
-137.1185899179773
 30
0.0
  0
VERTEX
  5
117
330
115
100
AcDbEntity
  8
_____1
 62
    29
100
AcDbVertex
100
AcDb2dVertex
 10
108.7788899467636
 20
-137.2305555212479
 30
0.0
  0
SEQEND
  5
118
330
115
100
AcDbEntity
  8
_____1
  0
POLYLINE
  5
119
330
1F
100
AcDbEntity
  8
_____1
 62
    29
100
AcDb2dPolyline
 66
     1
 10
0.0
 20
0.0
 30
0.0
  0
VERTEX
  5
11A
330
119
100
AcDbEntity
  8
_____1
 62
    29
100
AcDbVertex
100
AcDb2dVertex
 10
108.5229193522096
 20
-136.8488389414822
 30
0.0
  0
VERTEX
  5
11B
330
119
100
AcDbEntity
  8
_____1
 62
    29
100
AcDbVertex
100
AcDb2dVertex
 10
109.1199543998033
 20
-136.9604600352043
 30
0.0
  0
SEQEND
  5
11C
330
119
100
AcDbEntity
  8
_____1
  0
POLYLINE
  5
11D
330
1F
100
AcDbEntity
  8
_____1
 62
    29
100
AcDb2dPolyline
 66
     1
 10
0.0
 20
0.0
 30
0.0
  0
VERTEX
  5
11E
330
11D
100
AcDbEntity
  8
_____1
 62
    29
100
AcDbVertex
100
AcDb2dVertex
 10
108.6197265353451
 20
-136.5642740544006
 30
0.0
  0
VERTEX
  5
11F
330
11D
100
AcDbEntity
  8
_____1
 62
    29
100
AcDbVertex
100
AcDb2dVertex
 10
109.2174506020359
 20
-136.6762396576712
 30
0.0
  0
SEQEND
  5
120
330
11D
100
AcDbEntity
  8
_____1
  0
POLYLINE
  5
121
330
1F
100
AcDbEntity
  8
_____1
 62
    29
100
AcDb2dPolyline
 66
     1
 10
0.0
 20
0.0
 30
0.0
  0
VERTEX
  5
122
330
121
100
AcDbEntity
  8
_____1
 62
    29
100
AcDbVertex
100
AcDb2dVertex
 10
108.9611354979333
 20
-136.362391458965
 30
0.0
  0
VERTEX
  5
123
330
121
100
AcDbEntity
  8
_____1
 62
    29
100
AcDbVertex
100
AcDb2dVertex
 10
109.5581705455271
 20
-136.4740125526871
 30
0.0
  0
SEQEND
  5
124
330
121
100
AcDbEntity
  8
_____1
  0
SPLINE
  5
125
330
1F
100
AcDbEntity
  8
_____1
100
AcDbSpline
210
0.0
220
0.0
230
1.0
 70
     8
 71
     3
 72
    14
 73
    10
 74
     0
 42
0.0000000001
 43
0.0000000001
 40
0.0
 40
0.0
 40
0.0
 40
0.0
 40
1.0
 40
1.0
 40
1.0
 40
2.0
 40
2.0
 40
2.0
 40
3.0
 40
3.0
 40
3.0
 40
3.0
 10
106.1792208935941
 20
-134.5010063682845
 30
0.0
 10
106.1792208935941
 20
-134.5010063682845
 30
0.0
 10
106.3955728900678
 20
-134.2219536339792
 30
0.0
 10
107.3040445695282
 20
-133.2452690639109
 30
0.0
 10
108.0361273601438
 20
-132.4594427837254
 30
0.0
 10
107.2392767744055
 20
-132.0563666119512
 30
0.0
 10
106.9853732371426
 20
-132.370559320206
 30
0.0
 10
106.9853732371426
 20
-132.370559320206
 30
0.0
 10
105.4145819506429
 20
-133.8915689769438
 30
0.0
 10
105.4145819506429
 20
-133.8915689769438
 30
0.0
  0
SPLINE
  5
126
330
1F
100
AcDbEntity
  8
_____1
 62
    29
100
AcDbSpline
210
0.0
220
0.0
230
1.0
 70
    11
 71
     3
 72
    20
 73
    16
 74
     0
 42
0.0000000001
 43
0.0000000001
 40
0.0
 40
0.0
 40
0.0
 40
0.0
 40
1.0
 40
1.0
 40
1.0
 40
2.0
 40
2.0
 40
2.0
 40
3.0
 40
3.0
 40
3.0
 40
4.0
 40
4.0
 40
4.0
 40
5.0
 40
5.0
 40
5.0
 40
5.0
 10
105.7544406202628
 20
-133.9211967981169
 30
0.0
 10
106.0193684630785
 20
-133.9735622494927
 30
0.0
 10
106.3197807893923
 20
-134.1161892025821
 30
0.0
 10
106.1792208935941
 20
-134.5010063682845
 30
0.0
 10
106.1792208935941
 20
-134.5010063682845
 30
0.0
 10
106.3955728900678
 20
-134.2219536339792
 30
0.0
 10
107.3040445695282
 20
-133.2452690639109
 30
0.0
 10
108.0361273601438
 20
-132.4594427837254
 30
0.0
 10
107.2392767744055
 20
-132.0563666119512
 30
0.0
 10
106.9853732371426
 20
-132.370559320206
 30
0.0
 10
106.9853732371426
 20
-132.370559320206
 30
0.0
 10
105.4145819506429
 20
-133.8915689769438
 30
0.0
 10
105.4145819506429
 20
-133.8915689769438
 30
0.0
 10
105.4145819506429
 20
-133.8915689769438
 30
0.0
 10
105.5763291836754
 20
-133.8860568241674
 30
0.0
 10
105.7544406202628
 20
-133.9211967981169
 30
0.0
  0
POLYLINE
  5
127
330
1F
100
AcDbEntity
  8
_____1
100
AcDb2dPolyline
 66
     1
 10
0.0
 20
0.0
 30
0.0
  0
VERTEX
  5
128
330
127
100
AcDbEntity
  8
_____1
100
AcDbVertex
100
AcDb2dVertex
 10
94.06815996997254
 20
-137.5116753128443
 30
0.0
  0
VERTEX
  5
129
330
127
100
AcDbEntity
  8
_____1
100
AcDbVertex
100
AcDb2dVertex
 10
95.39279918405111
 20
-136.7585774397687
 30
0.0
  0
VERTEX
  5
12A
330
127
100
AcDbEntity
  8
_____1
100
AcDbVertex
100
AcDb2dVertex
 10
96.73897024491248
 20
-137.6098605341739
 30
0.0
  0
VERTEX
  5
12B
330
127
100
AcDbEntity
  8
_____1
100
AcDbVertex
100
AcDb2dVertex
 10
99.09903290708289
 20
-136.135359666487
 30
0.0
  0
VERTEX
  5
12C
330
127
100
AcDbEntity
  8
_____1
100
AcDbVertex
100
AcDb2dVertex
 10
110.4253010791645
 20
-142.7206596865421
 30
0.0
  0
VERTEX
  5
12D
330
127
100
AcDbEntity
  8
_____1
100
AcDbVertex
100
AcDb2dVertex
 10
110.4370144038144
 20
-157.2620632202331
 30
0.0
  0
VERTEX
  5
12E
330
127
100
AcDbEntity
  8
_____1
100
AcDbVertex
100
AcDb2dVertex
 10
106.6546440705586
 20
-159.439363566911
 30
0.0
  0
SEQEND
  5
12F
330
127
100
AcDbEntity
  8
_____1
  0
POLYLINE
  5
130
330
1F
100
AcDbEntity
  8
_____1
 62
    29
100
AcDb2dPolyline
 66
     1
 10
0.0
 20
0.0
 30
0.0
  0
VERTEX
  5
131
330
130
100
AcDbEntity
  8
_____1
 62
    29
100
AcDbVertex
100
AcDb2dVertex
 10
94.06815996997254
 20
-137.5116753128443
 30
0.0
  0
VERTEX
  5
132
330
130
100
AcDbEntity
  8
_____1
 62
    29
100
AcDbVertex
100
AcDb2dVertex
 10
95.39279918405111
 20
-136.7585774397687
 30
0.0
  0
VERTEX
  5
133
330
130
100
AcDbEntity
  8
_____1
 62
    29
100
AcDbVertex
100
AcDb2dVertex
 10
96.73897024491248
 20
-137.6098605341739
 30
0.0
  0
VERTEX
  5
134
330
130
100
AcDbEntity
  8
_____1
 62
    29
100
AcDbVertex
100
AcDb2dVertex
 10
99.09903290708289
 20
-136.135359666487
 30
0.0
  0
VERTEX
  5
135
330
130
100
AcDbEntity
  8
_____1
 62
    29
100
AcDbVertex
100
AcDb2dVertex
 10
110.4253010791645
 20
-142.7206596865421
 30
0.0
  0
VERTEX
  5
136
330
130
100
AcDbEntity
  8
_____1
 62
    29
100
AcDbVertex
100
AcDb2dVertex
 10
110.4370144038144
 20
-157.2620632202331
 30
0.0
  0
VERTEX
  5
137
330
130
100
AcDbEntity
  8
_____1
 62
    29
100
AcDbVertex
100
AcDb2dVertex
 10
106.6546440705586
 20
-159.439363566911
 30
0.0
  0
SEQEND
  5
138
330
130
100
AcDbEntity
  8
_____1
  0
POLYLINE
  5
139
330
1F
100
AcDbEntity
  8
_____1
 62
    29
100
AcDb2dPolyline
 66
     1
 10
0.0
 20
0.0
 30
0.0
  0
VERTEX
  5
13A
330
139
100
AcDbEntity
  8
_____1
 62
    29
100
AcDbVertex
100
AcDb2dVertex
 10
110.4849012310593
 20
-142.7802598384369
 30
0.0
  0
VERTEX
  5
13B
330
139
100
AcDbEntity
  8
_____1
 62
    29
100
AcDbVertex
100
AcDb2dVertex
 10
106.4424261886672
 20
-145.0795165652926
 30
0.0
  0
SEQEND
  5
13C
330
139
100
AcDbEntity
  8
_____1
  0
SPLINE
  5
13D
330
1F
100
AcDbEntity
  8
_____1
 62
    29
100
AcDbSpline
210
0.0
220
0.0
230
1.0
 70
    11
 71
     3
 72
    41
 73
    37
 74
     0
 42
0.0000000001
 43
0.0000000001
 40
0.0
 40
0.0
 40
0.0
 40
0.0
 40
1.0
 40
1.0
 40
1.0
 40
2.0
 40
2.0
 40
2.0
 40
3.0
 40
3.0
 40
3.0
 40
4.0
 40
4.0
 40
4.0
 40
5.0
 40
5.0
 40
5.0
 40
6.0
 40
6.0
 40
6.0
 40
7.0
 40
7.0
 40
7.0
 40
8.0
 40
8.0
 40
8.0
 40
9.0
 40
9.0
 40
9.0
 40
10.0
 40
10.0
 40
10.0
 40
11.0
 40
11.0
 40
11.0
 40
12.0
 40
12.0
 40
12.0
 40
12.0
 10
105.3668673781722
 20
-163.7884521074904
 30
0.0
 10
105.2182115079836
 20
-163.8745794946216
 30
0.0
 10
105.0140896004826
 20
-163.8628661699718
 30
0.0
 10
104.7889526105215
 20
-163.7333305797264
 30
0.0
 10
104.7889526105215
 20
-163.7333305797264
 30
0.0
 10
90.74622664832039
 20
-155.6380452084863
 30
0.0
 10
90.74622664832039
 20
-155.6380452084863
 30
0.0
 10
90.2961249231725
 20
-155.37794049935
 30
0.0
 10
89.92749970625077
 20
-154.7412868536758
 30
0.0
 10
89.92715519670224
 20
-154.2221109640487
 30
0.0
 10
89.92715519670224
 20
-154.2221109640487
 30
0.0
 10
89.91613089114945
 20
-137.2891221444972
 30
0.0
 10
89.91613089114945
 20
-137.2891221444972
 30
0.0
 10
89.91613089114945
 20
-137.0290174353608
 30
0.0
 10
90.00828719537988
 20
-136.8457383555455
 30
0.0
 10
90.15608179169709
 20
-136.7606444970598
 30
0.0
 10
90.15608179169709
 20
-136.7606444970598
 30
0.0
 10
91.18306475585007
 20
-136.1663655258542
 30
0.0
 10
91.18306475585007
 20
-136.1663655258542
 30
0.0
 10
91.33120386171582
 20
-136.08092715782
 30
0.0
 10
91.53549802399112
 20
-136.0922959729214
 30
0.0
 10
91.76115177827499
 20
-136.2221760727153
 30
0.0
 10
91.76115177827499
 20
-136.2221760727153
 30
0.0
 10
105.8116292053179
 20
-144.3222845776347
 30
0.0
 10
105.8116292053179
 20
-144.3222845776347
 30
0.0
 10
106.261214166143
 20
-144.5820447772226
 30
0.0
 10
106.6298393830648
 20
-145.2193874419938
 30
0.0
 10
106.6298393830648
 20
-145.7382188220724
 30
0.0
 10
106.6298393830648
 20
-145.7382188220724
 30
0.0
 10
106.6343180071956
 20
-162.6667290174931
 30
0.0
 10
106.6343180071956
 20
-162.6667290174931
 30
0.0
 10
106.6343180071956
 20
-162.9271782361779
 30
0.0
 10
106.5416449386424
 20
-163.1090792777991
 30
0.0
 10
106.3935058327766
 20
-163.1952066649304
 30
0.0
 10
106.3935058327766
 20
-163.1952066649304
 30
0.0
 10
105.3668673781722
 20
-163.7884521074904
 30
0.0
 10
105.3668673781722
 20
-163.7884521074904
 30
0.0
  0
SPLINE
  5
13E
330
1F
100
AcDbEntity
  8
_____1
 62
    29
100
AcDbSpline
210
0.0
220
0.0
230
1.0
 70
     8
 71
     3
 72
    20
 73
    16
 74
     0
 42
0.0000000001
 43
0.0000000001
 40
0.0
 40
0.0
 40
0.0
 40
0.0
 40
1.0
 40
1.0
 40
1.0
 40
2.0
 40
2.0
 40
2.0
 40
3.0
 40
3.0
 40
3.0
 40
4.0
 40
4.0
 40
4.0
 40
5.0
 40
5.0
 40
5.0
 40
5.0
 10
90.15590953692283
 20
-136.7606444970598
 30
0.0
 10
90.30473766188562
 20
-136.6745171099286
 30
0.0
 10
90.50868731461242
 20
-136.6858859250299
 30
0.0
 10
90.73416881412201
 20
-136.8161105343724
 30
0.0
 10
90.73416881412201
 20
-136.8161105343724
 30
0.0
 10
104.7846462411649
 20
-144.9162190392918
 30
0.0
 10
104.7846462411649
 20
-144.9162190392918
 30
0.0
 10
105.2347479663129
 20
-145.1756347293311
 30
0.0
 10
105.6032009284603
 20
-145.8129773941023
 30
0.0
 10
105.6032009284603
 20
-146.332497793278
 30
0.0
 10
105.6032009284603
 20
-146.332497793278
 30
0.0
 10
105.6073350430426
 20
-163.2603189696016
 30
0.0
 10
105.6073350430426
 20
-163.2603189696016
 30
0.0
 10
105.6073350430426
 20
-163.520423678738
 30
0.0
 10
105.5150064840379
 20
-163.7030137394562
 30
0.0
 10
105.3666951233979
 20
-163.7884521074904
 30
0.0
  0
SPLINE
  5
13F
330
1F
100
AcDbEntity
  8
_____1
 62
    29
100
AcDbSpline
210
0.0
220
0.0
230
1.0
 70
     8
 71
     3
 72
    20
 73
    16
 74
     0
 42
0.0000000001
 43
0.0000000001
 40
0.0
 40
0.0
 40
0.0
 40
0.0
 40
1.0
 40
1.0
 40
1.0
 40
2.0
 40
2.0
 40
2.0
 40
3.0
 40
3.0
 40
3.0
 40
4.0
 40
4.0
 40
4.0
 40
5.0
 40
5.0
 40
5.0
 40
5.0
 10
90.66561141396555
 20
-136.4653998139739
 30
0.0
 10
90.81357826505703
 20
-136.3803059554883
 30
0.0
 10
91.01838919165513
 20
-136.3916747705896
 30
0.0
 10
91.24283716251915
 20
-136.521899379932
 30
0.0
 10
91.24283716251915
 20
-136.521899379932
 30
0.0
 10
105.2940036086591
 20
-144.6220078848515
 30
0.0
 10
105.2940036086591
 20
-144.6220078848515
 30
0.0
 10
105.7437608242585
 20
-144.8814235748908
 30
0.0
 10
106.1127305507288
 20
-145.5184217301135
 30
0.0
 10
106.1127305507288
 20
-146.0379421292891
 30
0.0
 10
106.1127305507288
 20
-146.0379421292891
 30
0.0
 10
106.1158311366655
 20
-162.9657633056127
 30
0.0
 10
106.1158311366655
 20
-162.9657633056127
 30
0.0
 10
106.1165201557625
 20
-163.2258680147491
 30
0.0
 10
106.0235025776608
 20
-163.4088025850158
 30
0.0
 10
105.8753634717951
 20
-163.4942409530501
 30
0.0
  0
SPLINE
  5
140
330
1F
100
AcDbEntity
  8
_____1
 62
    29
100
AcDbSpline
210
0.0
220
0.0
230
1.0
 70
     8
 71
     3
 72
    26
 73
    22
 74
     0
 42
0.0000000001
 43
0.0000000001
 40
0.0
 40
0.0
 40
0.0
 40
0.0
 40
1.0
 40
1.0
 40
1.0
 40
2.0
 40
2.0
 40
2.0
 40
3.0
 40
3.0
 40
3.0
 40
4.0
 40
4.0
 40
4.0
 40
5.0
 40
5.0
 40
5.0
 40
6.0
 40
6.0
 40
6.0
 40
7.0
 40
7.0
 40
7.0
 40
7.0
 10
93.08320717073961
 20
-142.1863253767798
 30
0.0
 10
93.08320717073961
 20
-142.1863253767798
 30
0.0
 10
92.88459741601497
 20
-142.3017360755357
 30
0.0
 10
92.88459741601497
 20
-142.3017360755357
 30
0.0
 10
92.83498804102737
 20
-142.3303303680632
 30
0.0
 10
92.80415443643439
 20
-142.3916530677007
 30
0.0
 10
92.80449894598291
 20
-142.478469473929
 30
0.0
 10
92.80449894598291
 20
-142.478469473929
 30
0.0
 10
92.81121688217914
 20
-152.8168565156152
 30
0.0
 10
92.81121688217914
 20
-152.8168565156152
 30
0.0
 10
92.81121688217914
 20
-152.9901448185233
 30
0.0
 10
92.9340345362283
 20
-153.2033962290603
 30
0.0
 10
93.08544648280503
 20
-153.2902126352886
 30
0.0
 10
93.08544648280503
 20
-153.2902126352886
 30
0.0
 10
102.0487236615538
 20
-158.4575113536148
 30
0.0
 10
102.0487236615538
 20
-158.4575113536148
 30
0.0
 10
102.1246880170035
 20
-158.5009195567289
 30
0.0
 10
102.1927286528372
 20
-158.5047091617627
 30
0.0
 10
102.2425102825991
 20
-158.4761148692351
 30
0.0
 10
102.2425102825991
 20
-158.4761148692351
 30
0.0
 10
102.4643744318492
 20
-158.3476128076353
 30
0.0
 10
102.4643744318492
 20
-158.3476128076353
 30
0.0
  0
SPLINE
  5
141
330
1F
100
AcDbEntity
  8
_____1
 62
    29
100
AcDbSpline
210
0.0
220
0.0
230
1.0
 70
     8
 71
     3
 72
    20
 73
    16
 74
     0
 42
0.0000000001
 43
0.0000000001
 40
0.0
 40
0.0
 40
0.0
 40
0.0
 40
1.0
 40
1.0
 40
1.0
 40
2.0
 40
2.0
 40
2.0
 40
3.0
 40
3.0
 40
3.0
 40
4.0
 40
4.0
 40
4.0
 40
5.0
 40
5.0
 40
5.0
 40
5.0
 10
93.08320717073961
 20
-142.1863253767798
 30
0.0
 10
93.13298880050148
 20
-142.1573865747037
 30
0.0
 10
93.20189071020647
 20
-142.1622097083831
 30
0.0
 10
93.27768281088197
 20
-142.2056179114972
 30
0.0
 10
93.27768281088197
 20
-142.2056179114972
 30
0.0
 10
102.241821263502
 20
-147.3718831011779
 30
0.0
 10
102.241821263502
 20
-147.3718831011779
 30
0.0
 10
102.3930609553045
 20
-147.4593885265032
 30
0.0
 10
102.5158786093537
 20
-147.6726399370402
 30
0.0
 10
102.5158786093537
 20
-147.8459282399483
 30
0.0
 10
102.5158786093537
 20
-147.8459282399483
 30
0.0
 10
102.5229410550984
 20
-158.1843152816345
 30
0.0
 10
102.5229410550984
 20
-158.1843152816345
 30
0.0
 10
102.5225965455499
 20
-158.2625189491497
 30
0.0
 10
102.4974473485076
 20
-158.3210855723989
 30
0.0
 10
102.454383654942
 20
-158.3520914317662
 30
0.0
  0
SPLINE
  5
142
330
1F
100
AcDbEntity
  8
_____1
 62
    29
100
AcDbSpline
210
0.0
220
0.0
230
1.0
 70
     8
 71
     3
 72
    20
 73
    16
 74
     0
 42
0.0000000001
 43
0.0000000001
 40
0.0
 40
0.0
 40
0.0
 40
0.0
 40
1.0
 40
1.0
 40
1.0
 40
2.0
 40
2.0
 40
2.0
 40
3.0
 40
3.0
 40
3.0
 40
4.0
 40
4.0
 40
4.0
 40
5.0
 40
5.0
 40
5.0
 40
5.0
 10
92.88459741601497
 20
-142.3017360755357
 30
0.0
 10
92.9340345362283
 20
-142.2731417830081
 30
0.0
 10
93.0024196816105
 20
-142.2772758975904
 30
0.0
 10
93.07769501796322
 20
-142.3210286102531
 30
0.0
 10
93.07769501796322
 20
-142.3210286102531
 30
0.0
 10
102.0420057253576
 20
-147.4876383094823
 30
0.0
 10
102.0420057253576
 20
-147.4876383094823
 30
0.0
 10
102.1927286528372
 20
-147.5751437348076
 30
0.0
 10
102.3158908164349
 20
-147.7877061262475
 30
0.0
 10
102.3162353259834
 20
-147.9616834482526
 30
0.0
 10
102.3162353259834
 20
-147.9616834482526
 30
0.0
 10
102.3229532621797
 20
-158.2997259803903
 30
0.0
 10
102.3229532621797
 20
-158.2997259803903
 30
0.0
 10
102.3229532621797
 20
-158.3858533675216
 30
0.0
 10
102.2921196575867
 20
-158.4478650862561
 30
0.0
 10
102.2425102825991
 20
-158.4761148692351
 30
0.0
  0
SPLINE
  5
143
330
1F
100
AcDbEntity
  8
_____1
 62
    29
100
AcDbSpline
210
0.0
220
0.0
230
1.0
 70
     8
 71
     3
 72
    17
 73
    13
 74
     0
 42
0.0000000001
 43
0.0000000001
 40
0.0
 40
0.0
 40
0.0
 40
0.0
 40
1.0
 40
1.0
 40
1.0
 40
2.0
 40
2.0
 40
2.0
 40
3.0
 40
3.0
 40
3.0
 40
4.0
 40
4.0
 40
4.0
 40
4.0
 10
96.3026489017056
 20
-145.7592339045324
 30
0.0
 10
96.35828719379238
 20
-145.6663885812049
 30
0.0
 10
96.43149547285394
 20
-145.5914577544007
 30
0.0
 10
96.522101484116
 20
-145.5390923030249
 30
0.0
 10
96.99132348920703
 20
-145.2676187787873
 30
0.0
 10
97.75320635577003
 20
-145.7075574722537
 30
0.0
 10
98.22311737995811
 20
-146.5209445163212
 30
0.0
 10
98.69371742324324
 20
-147.3332980317431
 30
0.0
 10
98.6944064423403
 20
-148.2135199282244
 30
0.0
 10
98.22449541815222
 20
-148.4849934524621
 30
0.0
 10
98.10718991687946
 20
-148.5528618335215
 30
0.0
 10
97.97162540953488
 20
-148.5762884828212
 30
0.0
 10
97.82675914438012
 20
-148.5604410435891
 30
0.0
  0
SPLINE
  5
144
330
1F
100
AcDbEntity
  8
_____1
 62
    29
100
AcDbSpline
210
0.0
220
0.0
230
1.0
 70
    11
 71
     3
 72
    17
 73
    13
 74
     0
 42
0.0000000001
 43
0.0000000001
 40
0.0
 40
0.0
 40
0.0
 40
0.0
 40
1.0
 40
1.0
 40
1.0
 40
2.0
 40
2.0
 40
2.0
 40
3.0
 40
3.0
 40
3.0
 40
4.0
 40
4.0
 40
4.0
 40
4.0
 10
98.52249617762632
 20
-149.6136067334299
 30
0.0
 10
98.60569523359511
 20
-149.565719906185
 30
0.0
 10
98.60603974314364
 20
-149.4096570807031
 30
0.0
 10
98.52249617762632
 20
-149.2656520894197
 30
0.0
 10
98.43912486688328
 20
-149.1213025885877
 30
0.0
 10
98.30407712386149
 20
-149.0437879401696
 30
0.0
 10
98.2208780678927
 20
-149.0923637865116
 30
0.0
 10
98.13716224760113
 20
-149.1399061042081
 30
0.0
 10
98.13750675714965
 20
-149.2970024583355
 30
0.0
 10
98.2208780678927
 20
-149.4403184305219
 30
0.0
 10
98.30407712386149
 20
-149.5836344027083
 30
0.0
 10
98.43912486688328
 20
-149.6625270893205
 30
0.0
 10
98.52249617762632
 20
-149.6136067334299
 30
0.0
  0
SPLINE
  5
145
330
1F
100
AcDbEntity
  8
_____1
100
AcDbSpline
210
0.0
220
0.0
230
1.0
 70
     8
 71
     3
 72
    17
 73
    13
 74
     0
 42
0.0000000001
 43
0.0000000001
 40
0.0
 40
0.0
 40
0.0
 40
0.0
 40
1.0
 40
1.0
 40
1.0
 40
2.0
 40
2.0
 40
2.0
 40
3.0
 40
3.0
 40
3.0
 40
4.0
 40
4.0
 40
4.0
 40
4.0
 10
97.925116620484
 20
-148.4891275670444
 30
0.0
 10
97.925116620484
 20
-148.4891275670444
 30
0.0
 10
96.5413940188334
 20
-149.2894232482679
 30
0.0
 10
96.5413940188334
 20
-149.2894232482679
 30
0.0
 10
96.11213512137128
 20
-149.538159142303
 30
0.0
 10
95.41502004993097
 20
-149.1357719896258
 30
0.0
 10
94.98507213337179
 20
-148.3933539125545
 30
0.0
 10
94.55633000023245
 20
-147.6485242686434
 30
0.0
 10
94.5556409811354
 20
-146.8447834919346
 30
0.0
 10
94.984555369049
 20
-146.5970811265452
 30
0.0
 10
94.984555369049
 20
-146.5970811265452
 30
0.0
 10
96.36827797069961
 20
-145.7964409357731
 30
0.0
 10
96.36827797069961
 20
-145.7964409357731
 30
0.0
  0
SPLINE
  5
146
330
1F
100
AcDbEntity
  8
_____1
 62
    29
100
AcDbSpline
210
0.0
220
0.0
230
1.0
 70
     8
 71
     3
 72
    11
 73
     7
 74
     0
 42
0.0000000001
 43
0.0000000001
 40
0.0
 40
0.0
 40
0.0
 40
0.0
 40
1.0
 40
1.0
 40
1.0
 40
2.0
 40
2.0
 40
2.0
 40
2.0
 10
96.36827797069961
 20
-145.7964409357731
 30
0.0
 10
96.79788137771025
 20
-145.5483940608351
 30
0.0
 10
97.49361841095646
 20
-145.9504367039638
 30
0.0
 10
97.92356632751564
 20
-146.6931992905837
 30
0.0
 10
98.35368649884909
 20
-147.4369954058491
 30
0.0
 10
98.35437551794614
 20
-148.2414252016549
 30
0.0
 10
97.925116620484
 20
-148.4891275670444
 30
0.0
  0
SPLINE
  5
147
330
1F
100
AcDbEntity
  8
_____1
 62
    29
100
AcDbSpline
210
0.0
220
0.0
230
1.0
 70
     8
 71
     3
 72
    11
 73
     7
 74
     0
 42
0.0000000001
 43
0.0000000001
 40
0.0
 40
0.0
 40
0.0
 40
0.0
 40
1.0
 40
1.0
 40
1.0
 40
2.0
 40
2.0
 40
2.0
 40
2.0
 10
94.984555369049
 20
-146.5970811265452
 30
0.0
 10
95.41433103083392
 20
-146.3486897420587
 30
0.0
 10
96.11041257362865
 20
-146.7500433660903
 30
0.0
 10
96.54001598063931
 20
-147.4938394813557
 30
0.0
 10
96.97013615197275
 20
-148.2366020679756
 30
0.0
 10
96.97151419016684
 20
-149.0406873542329
 30
0.0
 10
96.5413940188334
 20
-149.2890787387194
 30
0.0
  0
POLYLINE
  5
148
330
1F
100
AcDbEntity
  8
_____1
 62
    29
100
AcDb2dPolyline
 66
     1
 10
0.0
 20
0.0
 30
0.0
  0
VERTEX
  5
149
330
148
100
AcDbEntity
  8
_____1
 62
    29
100
AcDbVertex
100
AcDb2dVertex
 10
95.41157495444573
 20
-148.8374267206032
 30
0.0
  0
VERTEX
  5
14A
330
148
100
AcDbEntity
  8
_____1
 62
    29
100
AcDbVertex
100
AcDb2dVertex
 10
95.65807153641535
 20
-148.097075700823
 30
0.0
  0
SEQEND
  5
14B
330
148
100
AcDbEntity
  8
_____1
  0
SPLINE
  5
14C
330
1F
100
AcDbEntity
  8
_____1
 62
    29
100
AcDbSpline
210
0.0
220
0.0
230
1.0
 70
    11
 71
     3
 72
    17
 73
    13
 74
     0
 42
0.0000000001
 43
0.0000000001
 40
0.0
 40
0.0
 40
0.0
 40
0.0
 40
1.0
 40
1.0
 40
1.0
 40
2.0
 40
2.0
 40
2.0
 40
3.0
 40
3.0
 40
3.0
 40
4.0
 40
4.0
 40
4.0
 40
4.0
 10
96.34175073546318
 20
-149.1736680399635
 30
0.0
 10
95.96813013008783
 20
-149.3910535650828
 30
0.0
 10
95.35989852216697
 20
-149.0406873542329
 30
0.0
 10
94.98507213337179
 20
-148.3930094030059
 30
0.0
 10
94.61179603754498
 20
-147.7442979231334
 30
0.0
 10
94.61110701844792
 20
-147.043220991885
 30
0.0
 10
94.98507213337179
 20
-146.8272135049599
 30
0.0
 10
95.35920950306992
 20
-146.6108615084862
 30
0.0
 10
95.96571856324816
 20
-146.960538700239
 30
0.0
 10
96.3407172068176
 20
-147.6092501801116
 30
0.0
 10
96.71537134083852
 20
-148.2569281313386
 30
0.0
 10
96.7164048694841
 20
-148.9576605530384
 30
0.0
 10
96.34175073546318
 20
-149.1736680399635
 30
0.0
  0
SPLINE
  5
14D
330
1F
100
AcDbEntity
  8
_____1
 62
    29
100
AcDbSpline
210
0.0
220
0.0
230
1.0
 70
     8
 71
     3
 72
    17
 73
    13
 74
     0
 42
0.0000000001
 43
0.0000000001
 40
0.0
 40
0.0
 40
0.0
 40
0.0
 40
1.0
 40
1.0
 40
1.0
 40
2.0
 40
2.0
 40
2.0
 40
3.0
 40
3.0
 40
3.0
 40
4.0
 40
4.0
 40
4.0
 40
4.0
 10
97.925116620484
 20
-148.4891275670444
 30
0.0
 10
97.925116620484
 20
-148.4891275670444
 30
0.0
 10
96.5413940188334
 20
-149.2894232482679
 30
0.0
 10
96.5413940188334
 20
-149.2894232482679
 30
0.0
 10
96.11213512137128
 20
-149.538159142303
 30
0.0
 10
95.41502004993097
 20
-149.1357719896258
 30
0.0
 10
94.98507213337179
 20
-148.3933539125545
 30
0.0
 10
94.55633000023245
 20
-147.6485242686434
 30
0.0
 10
94.5556409811354
 20
-146.8447834919346
 30
0.0
 10
94.984555369049
 20
-146.5970811265452
 30
0.0
 10
94.984555369049
 20
-146.5970811265452
 30
0.0
 10
96.36827797069961
 20
-145.7964409357731
 30
0.0
 10
96.36827797069961
 20
-145.7964409357731
 30
0.0
  0
POLYLINE
  5
14E
330
1F
100
AcDbEntity
  8
_____1
 62
    29
100
AcDb2dPolyline
 66
     1
 10
0.0
 20
0.0
 30
0.0
  0
VERTEX
  5
14F
330
14E
100
AcDbEntity
  8
_____1
 62
    29
100
AcDbVertex
100
AcDb2dVertex
 10
99.70347490996997
 20
-156.4624565581066
 30
0.0
  0
VERTEX
  5
150
330
14E
100
AcDbEntity
  8
_____1
 62
    29
100
AcDbVertex
100
AcDb2dVertex
 10
99.69038354712602
 20
-153.1655001787225
 30
0.0
  0
VERTEX
  5
151
330
14E
100
AcDbEntity
  8
_____1
 62
    29
100
AcDbVertex
100
AcDb2dVertex
 10
95.47220863498612
 20
-150.7339517852332
 30
0.0
  0
VERTEX
  5
152
330
14E
100
AcDbEntity
  8
_____1
 62
    29
100
AcDbVertex
100
AcDb2dVertex
 10
95.48598901692712
 20
-154.0315971837143
 30
0.0
  0
VERTEX
  5
153
330
14E
100
AcDbEntity
  8
_____1
 62
    29
100
AcDbVertex
100
AcDb2dVertex
 10
99.70347490996997
 20
-156.4624565581066
 30
0.0
  0
SEQEND
  5
154
330
14E
100
AcDbEntity
  8
_____1
  0
SPLINE
  5
155
330
1F
100
AcDbEntity
  8
_____1
 62
    29
100
AcDbSpline
210
0.0
220
0.0
230
1.0
 70
     8
 71
     3
 72
    26
 73
    22
 74
     0
 42
0.0000000001
 43
0.0000000001
 40
0.0
 40
0.0
 40
0.0
 40
0.0
 40
1.0
 40
1.0
 40
1.0
 40
2.0
 40
2.0
 40
2.0
 40
3.0
 40
3.0
 40
3.0
 40
4.0
 40
4.0
 40
4.0
 40
5.0
 40
5.0
 40
5.0
 40
6.0
 40
6.0
 40
6.0
 40
7.0
 40
7.0
 40
7.0
 40
7.0
 10
99.13090004032145
 20
-155.5998046486
 30
0.0
 10
99.1756862816297
 20
-155.6256428647394
 30
0.0
 10
99.21237654854761
 20
-155.6046277822794
 30
0.0
 10
99.21203203899908
 20
-155.5526068404521
 30
0.0
 10
99.21203203899908
 20
-155.5526068404521
 30
0.0
 10
99.20307479073743
 20
-153.4393852697999
 30
0.0
 10
99.20307479073743
 20
-153.4393852697999
 30
0.0
 10
99.20238577164038
 20
-153.3870198184241
 30
0.0
 10
99.16604001427099
 20
-153.3236300614955
 30
0.0
 10
99.12125377296275
 20
-153.2984808644532
 30
0.0
 10
99.12125377296275
 20
-153.2984808644532
 30
0.0
 10
96.04547252373169
 20
-151.524601199098
 30
0.0
 10
96.04547252373169
 20
-151.524601199098
 30
0.0
 10
96.00068628242344
 20
-151.4991074925072
 30
0.0
 10
95.96399601550553
 20
-151.5201225749672
 30
0.0
 10
95.96399601550553
 20
-151.572488026343
 30
0.0
 10
95.96399601550553
 20
-151.572488026343
 30
0.0
 10
95.97381453763849
 20
-153.6853650874467
 30
0.0
 10
95.97381453763849
 20
-153.6853650874467
 30
0.0
 10
95.97381453763849
 20
-153.738075048371
 30
0.0
 10
96.01084931410493
 20
-153.8011202957511
 30
0.0
 10
96.05563555541318
 20
-153.8276475309875
 30
0.0
  0
SPLINE
  5
156
330
1F
100
AcDbEntity
  8
_____1
 62
    29
100
AcDbSpline
210
0.0
220
0.0
230
1.0
 70
     8
 71
     3
 72
    14
 73
    10
 74
     0
 42
0.0000000001
 43
0.0000000001
 40
0.0
 40
0.0
 40
0.0
 40
0.0
 40
1.0
 40
1.0
 40
1.0
 40
2.0
 40
2.0
 40
2.0
 40
3.0
 40
3.0
 40
3.0
 40
3.0
 10
95.96399601550553
 20
-151.5721435167945
 30
0.0
 10
95.96399601550553
 20
-151.5721435167945
 30
0.0
 10
98.55694713247883
 20
-153.4703911291671
 30
0.0
 10
98.55694713247883
 20
-153.4703911291671
 30
0.0
 10
98.59191485165411
 20
-153.496573854855
 30
0.0
 10
98.65547686335697
 20
-153.5062201222137
 30
0.0
 10
98.69699026395423
 20
-153.4924397402727
 30
0.0
 10
98.69699026395423
 20
-153.4924397402727
 30
0.0
 10
99.1150526010893
 20
-153.3532578826686
 30
0.0
 10
99.1150526010893
 20
-153.3532578826686
 30
0.0
  0
SPLINE
  5
157
330
1F
100
AcDbEntity
  8
_____1
 62
    29
100
AcDbSpline
210
0.0
220
0.0
230
1.0
 70
     8
 71
     3
 72
    14
 73
    10
 74
     0
 42
0.0000000001
 43
0.0000000001
 40
0.0
 40
0.0
 40
0.0
 40
0.0
 40
1.0
 40
1.0
 40
1.0
 40
2.0
 40
2.0
 40
2.0
 40
3.0
 40
3.0
 40
3.0
 40
3.0
 10
96.01102156887919
 20
-153.7528889589576
 30
0.0
 10
96.01102156887919
 20
-153.7528889589576
 30
0.0
 10
98.5579806611244
 20
-155.7269286720058
 30
0.0
 10
98.5579806611244
 20
-155.7269286720058
 30
0.0
 10
98.59260387075116
 20
-155.7538004167907
 30
0.0
 10
98.65530460858271
 20
-155.7641357032465
 30
0.0
 10
98.69699026395423
 20
-155.7503553213055
 30
0.0
 10
98.69699026395423
 20
-155.7503553213055
 30
0.0
 10
99.1150526010893
 20
-155.6115179732499
 30
0.0
 10
99.1150526010893
 20
-155.6115179732499
 30
0.0
  0
POLYLINE
  5
158
330
1F
100
AcDbEntity
  8
_____1
 62
    29
100
AcDb2dPolyline
 66
     1
 10
0.0
 20
0.0
 30
0.0
  0
VERTEX
  5
159
330
158
100
AcDbEntity
  8
_____1
 62
    29
100
AcDbVertex
100
AcDb2dVertex
 10
98.62119816327873
 20
-153.564786745463
 30
0.0
  0
VERTEX
  5
15A
330
158
100
AcDbEntity
  8
_____1
 62
    29
100
AcDbVertex
100
AcDb2dVertex
 10
98.62119816327873
 20
-155.6325330557099
 30
0.0
  0
SEQEND
  5
15B
330
158
100
AcDbEntity
  8
_____1
  0
SPLINE
  5
15C
330
1F
100
AcDbEntity
  8
_____1
 62
    29
100
AcDbSpline
210
0.0
220
0.0
230
1.0
 70
    11
 71
     3
 72
    20
 73
    16
 74
     0
 42
0.0000000001
 43
0.0000000001
 40
0.0
 40
0.0
 40
0.0
 40
0.0
 40
1.0
 40
1.0
 40
1.0
 40
2.0
 40
2.0
 40
2.0
 40
3.0
 40
3.0
 40
3.0
 40
4.0
 40
4.0
 40
4.0
 40
5.0
 40
5.0
 40
5.0
 40
5.0
 10
96.85782603915361
 20
-150.8913926489091
 30
0.0
 10
96.86764456128657
 20
-150.9003498971707
 30
0.0
 10
96.88004690503347
 20
-150.9086181263353
 30
0.0
 10
96.89520532516856
 20
-150.9172308650485
 30
0.0
 10
96.95084361725534
 20
-150.9496147626098
 30
0.0
 10
96.98477780778506
 20
-150.9372124188629
 30
0.0
 10
96.98512231733359
 20
-150.8783012860652
 30
0.0
 10
96.98477780778506
 20
-150.8197346628159
 30
0.0
 10
96.94843205041568
 20
-150.773225873765
 30
0.0
 10
96.90002845884791
 20
-150.7453206003345
 30
0.0
 10
96.88073592413052
 20
-150.7339517852332
 30
0.0
 10
96.86626652309246
 20
-150.7274061038112
 30
0.0
 10
96.85782603915361
 20
-150.7249945369715
 30
0.0
 10
96.85782603915361
 20
-150.7249945369715
 30
0.0
 10
96.85782603915361
 20
-150.8913926489091
 30
0.0
 10
96.85782603915361
 20
-150.8913926489091
 30
0.0
  0
SPLINE
  5
15D
330
1F
100
AcDbEntity
  8
_____1
 62
    29
100
AcDbSpline
210
0.0
220
0.0
230
1.0
 70
    11
 71
     3
 72
    26
 73
    22
 74
     0
 42
0.0000000001
 43
0.0000000001
 40
0.0
 40
0.0
 40
0.0
 40
0.0
 40
1.0
 40
1.0
 40
1.0
 40
2.0
 40
2.0
 40
2.0
 40
3.0
 40
3.0
 40
3.0
 40
4.0
 40
4.0
 40
4.0
 40
5.0
 40
5.0
 40
5.0
 40
6.0
 40
6.0
 40
6.0
 40
7.0
 40
7.0
 40
7.0
 40
7.0
 10
96.8192409697188
 20
-150.6705620283046
 30
0.0
 10
96.83973928785605
 20
-150.6781412383721
 30
0.0
 10
96.86661103264099
 20
-150.689854563022
 30
0.0
 10
96.89968394929939
 20
-150.7084580786423
 30
0.0
 10
97.01440562895822
 20
-150.7749484215076
 30
0.0
 10
97.02353513199412
 20
-150.8655544327697
 30
0.0
 10
97.02353513199412
 20
-150.897249311234
 30
0.0
 10
97.02353513199412
 20
-150.9933674752725
 30
0.0
 10
96.95687253435453
 20
-150.9895778702387
 30
0.0
 10
96.89417179652298
 20
-150.9534043676436
 30
0.0
 10
96.88073592413052
 20
-150.9458251575761
 30
0.0
 10
96.86867808993215
 20
-150.93790143796
 30
0.0
 10
96.85782603915361
 20
-150.9285996801498
 30
0.0
 10
96.85782603915361
 20
-150.9285996801498
 30
0.0
 10
96.85782603915361
 20
-151.09672033983
 30
0.0
 10
96.85782603915361
 20
-151.09672033983
 30
0.0
 10
96.85782603915361
 20
-151.09672033983
 30
0.0
 10
96.8192409697188
 20
-151.0746717287244
 30
0.0
 10
96.8192409697188
 20
-151.0746717287244
 30
0.0
 10
96.8192409697188
 20
-151.0746717287244
 30
0.0
 10
96.8192409697188
 20
-150.6705620283046
 30
0.0
 10
96.8192409697188
 20
-150.6705620283046
 30
0.0
  0
SPLINE
  5
15E
330
1F
100
AcDbEntity
  8
_____1
 62
    29
100
AcDbSpline
210
0.0
220
0.0
230
1.0
 70
    11
 71
     3
 72
    71
 73
    67
 74
     0
 42
0.0000000001
 43
0.0000000001
 40
0.0
 40
0.0
 40
0.0
 40
0.0
 40
1.0
 40
1.0
 40
1.0
 40
2.0
 40
2.0
 40
2.0
 40
3.0
 40
3.0
 40
3.0
 40
4.0
 40
4.0
 40
4.0
 40
5.0
 40
5.0
 40
5.0
 40
6.0
 40
6.0
 40
6.0
 40
7.0
 40
7.0
 40
7.0
 40
8.0
 40
8.0
 40
8.0
 40
9.0
 40
9.0
 40
9.0
 40
10.0
 40
10.0
 40
10.0
 40
11.0
 40
11.0
 40
11.0
 40
12.0
 40
12.0
 40
12.0
 40
13.0
 40
13.0
 40
13.0
 40
14.0
 40
14.0
 40
14.0
 40
15.0
 40
15.0
 40
15.0
 40
16.0
 40
16.0
 40
16.0
 40
17.0
 40
17.0
 40
17.0
 40
18.0
 40
18.0
 40
18.0
 40
19.0
 40
19.0
 40
19.0
 40
20.0
 40
20.0
 40
20.0
 40
21.0
 40
21.0
 40
21.0
 40
22.0
 40
22.0
 40
22.0
 40
22.0
 10
97.4672634304943
 20
-151.0395317547749
 30
0.0
 10
97.4672634304943
 20
-151.0395317547749
 30
0.0
 10
97.36925046393894
 20
-151.3916205133674
 30
0.0
 10
97.36925046393894
 20
-151.3916205133674
 30
0.0
 10
97.36925046393894
 20
-151.3916205133674
 30
0.0
 10
97.32980412063283
 20
-151.3692273927132
 30
0.0
 10
97.32980412063283
 20
-151.3692273927132
 30
0.0
 10
97.32980412063283
 20
-151.3692273927132
 30
0.0
 10
97.28381209590475
 20
-151.124281103712
 30
0.0
 10
97.28381209590475
 20
-151.124281103712
 30
0.0
 10
97.27192651648063
 20
-151.0636474231716
 30
0.0
 10
97.26486407073587
 20
-151.0185166723148
 30
0.0
 10
97.26021319183079
 20
-150.9747639596521
 30
0.0
 10
97.26021319183079
 20
-150.9747639596521
 30
0.0
 10
97.25917966318521
 20
-150.9744194501036
 30
0.0
 10
97.25917966318521
 20
-150.9744194501036
 30
0.0
 10
97.25349525563455
 20
-151.0119709908928
 30
0.0
 10
97.24471026214717
 20
-151.0471109648424
 30
0.0
 10
97.23127438975469
 20
-151.0932752443447
 30
0.0
 10
97.23127438975469
 20
-151.0932752443447
 30
0.0
 10
97.18011472179873
 20
-151.282410986485
 30
0.0
 10
97.18011472179873
 20
-151.282410986485
 30
0.0
 10
97.18011472179873
 20
-151.282410986485
 30
0.0
 10
97.1403238689441
 20
-151.2596733562823
 30
0.0
 10
97.1403238689441
 20
-151.2596733562823
 30
0.0
 10
97.1403238689441
 20
-151.2596733562823
 30
0.0
 10
97.05281844361875
 20
-150.80009761855
 30
0.0
 10
97.05281844361875
 20
-150.80009761855
 30
0.0
 10
97.05281844361875
 20
-150.80009761855
 30
0.0
 10
97.09364282511895
 20
-150.8242132869467
 30
0.0
 10
97.09364282511895
 20
-150.8242132869467
 30
0.0
 10
97.09364282511895
 20
-150.8242132869467
 30
0.0
 10
97.13670651868458
 20
-151.0615803658804
 30
0.0
 10
97.13670651868458
 20
-151.0615803658804
 30
0.0
 10
97.14738631468886
 20
-151.1194579700326
 30
0.0
 10
97.1568603272733
 20
-151.1742349882481
 30
0.0
 10
97.16288924437248
 20
-151.2183322104593
 30
0.0
 10
97.16288924437248
 20
-151.2183322104593
 30
0.0
 10
97.16426728256657
 20
-151.2193657391049
 30
0.0
 10
97.16426728256657
 20
-151.2193657391049
 30
0.0
 10
97.16960718056872
 20
-151.1811251792186
 30
0.0
 10
97.1811482504443
 20
-151.1390950142986
 30
0.0
 10
97.19251706554563
 20
-151.0932752443447
 30
0.0
 10
97.19251706554563
 20
-151.0932752443447
 30
0.0
 10
97.24160967621043
 20
-150.9093071454324
 30
0.0
 10
97.24160967621043
 20
-150.9093071454324
 30
0.0
 10
97.24160967621043
 20
-150.9093071454324
 30
0.0
 10
97.28071150996801
 20
-150.9320447756351
 30
0.0
 10
97.28071150996801
 20
-150.9320447756351
 30
0.0
 10
97.28071150996801
 20
-150.9320447756351
 30
0.0
 10
97.32515324172775
 20
-151.1694118545688
 30
0.0
 10
97.32515324172775
 20
-151.1694118545688
 30
0.0
 10
97.33497176386071
 20
-151.2238443632357
 30
0.0
 10
97.34530705031645
 20
-151.2786213814512
 30
0.0
 10
97.35047469354433
 20
-151.3265082086962
 30
0.0
 10
97.35047469354433
 20
-151.3265082086962
 30
0.0
 10
97.35168047696416
 20
-151.3271972277932
 30
0.0
 10
97.35168047696416
 20
-151.3271972277932
 30
0.0
 10
97.35874292270893
 20
-151.2844780437761
 30
0.0
 10
97.36856144484189
 20
-151.2452039552442
 30
0.0
 10
97.37941349562043
 20
-151.2007622234845
 30
0.0
 10
97.37941349562043
 20
-151.2007622234845
 30
0.0
 10
97.42781708718819
 20
-151.0171386341207
 30
0.0
 10
97.42781708718819
 20
-151.0171386341207
 30
0.0
 10
97.42781708718819
 20
-151.0171386341207
 30
0.0
 10
97.4672634304943
 20
-151.0395317547749
 30
0.0
 10
97.4672634304943
 20
-151.0395317547749
 30
0.0
  0
SPLINE
  5
15F
330
1F
100
AcDbEntity
  8
_____1
 62
    29
100
AcDbSpline
210
0.0
220
0.0
230
1.0
 70
    11
 71
     3
 72
    71
 73
    67
 74
     0
 42
0.0000000001
 43
0.0000000001
 40
0.0
 40
0.0
 40
0.0
 40
0.0
 40
1.0
 40
1.0
 40
1.0
 40
2.0
 40
2.0
 40
2.0
 40
3.0
 40
3.0
 40
3.0
 40
4.0
 40
4.0
 40
4.0
 40
5.0
 40
5.0
 40
5.0
 40
6.0
 40
6.0
 40
6.0
 40
7.0
 40
7.0
 40
7.0
 40
8.0
 40
8.0
 40
8.0
 40
9.0
 40
9.0
 40
9.0
 40
10.0
 40
10.0
 40
10.0
 40
11.0
 40
11.0
 40
11.0
 40
12.0
 40
12.0
 40
12.0
 40
13.0
 40
13.0
 40
13.0
 40
14.0
 40
14.0
 40
14.0
 40
15.0
 40
15.0
 40
15.0
 40
16.0
 40
16.0
 40
16.0
 40
17.0
 40
17.0
 40
17.0
 40
18.0
 40
18.0
 40
18.0
 40
19.0
 40
19.0
 40
19.0
 40
20.0
 40
20.0
 40
20.0
 40
21.0
 40
21.0
 40
21.0
 40
22.0
 40
22.0
 40
22.0
 40
22.0
 10
97.84587942432326
 20
-151.6672281521874
 30
0.0
 10
97.84587942432326
 20
-151.6672281521874
 30
0.0
 10
97.80781111921125
 20
-151.6451795410818
 30
0.0
 10
97.80781111921125
 20
-151.6451795410818
 30
0.0
 10
97.80781111921125
 20
-151.6451795410818
 30
0.0
 10
97.79902612572386
 20
-151.4560437989416
 30
0.0
 10
97.79902612572386
 20
-151.4560437989416
 30
0.0
 10
97.79627004933566
 20
-151.3957546279497
 30
0.0
 10
97.79265269907614
 20
-151.317895469983
 30
0.0
 10
97.79299720862467
 20
-151.27655432416
 30
0.0
 10
97.79299720862467
 20
-151.27655432416
 30
0.0
 10
97.79161917043058
 20
-151.275865305063
 30
0.0
 10
97.79161917043058
 20
-151.275865305063
 30
0.0
 10
97.78042261010351
 20
-151.3151393935948
 30
0.0
 10
97.76543644474268
 20
-151.3568250489664
 30
0.0
 10
97.74889998641348
 20
-151.4043673666628
 30
0.0
 10
97.74889998641348
 20
-151.4043673666628
 30
0.0
 10
97.6849934651621
 20
-151.5728325358915
 30
0.0
 10
97.6849934651621
 20
-151.5728325358915
 30
0.0
 10
97.6849934651621
 20
-151.5728325358915
 30
0.0
 10
97.65657142740878
 20
-151.5566405871108
 30
0.0
 10
97.65657142740878
 20
-151.5566405871108
 30
0.0
 10
97.65657142740878
 20
-151.5566405871108
 30
0.0
 10
97.59731578506248
 20
-151.3213405654683
 30
0.0
 10
97.59731578506248
 20
-151.3213405654683
 30
0.0
 10
97.5802625624105
 20
-151.2524386557633
 30
0.0
 10
97.56682669001802
 20
-151.193183013417
 30
0.0
 10
97.55735267743358
 20
-151.1401285429442
 30
0.0
 10
97.55735267743358
 20
-151.1401285429442
 30
0.0
 10
97.55563012969095
 20
-151.1390950142986
 30
0.0
 10
97.55563012969095
 20
-151.1390950142986
 30
0.0
 10
97.55459660104539
 20
-151.1887043892862
 30
0.0
 10
97.55201277943145
 20
-151.2545057130544
 30
0.0
 10
97.54856768394619
 20
-151.3154839031434
 30
0.0
 10
97.54856768394619
 20
-151.3154839031434
 30
0.0
 10
97.53909367136175
 20
-151.489805734697
 30
0.0
 10
97.53909367136175
 20
-151.489805734697
 30
0.0
 10
97.53909367136175
 20
-151.489805734697
 30
0.0
 10
97.50240340444385
 20
-151.468790652237
 30
0.0
 10
97.50240340444385
 20
-151.468790652237
 30
0.0
 10
97.50240340444385
 20
-151.468790652237
 30
0.0
 10
97.52703583716338
 20
-151.0732936905303
 30
0.0
 10
97.52703583716338
 20
-151.0732936905303
 30
0.0
 10
97.52703583716338
 20
-151.0732936905303
 30
0.0
 10
97.57423364531131
 20
-151.1011989639608
 30
0.0
 10
97.57423364531131
 20
-151.1011989639608
 30
0.0
 10
97.57423364531131
 20
-151.1011989639608
 30
0.0
 10
97.63676212836859
 20
-151.344767214768
 30
0.0
 10
97.63676212836859
 20
-151.344767214768
 30
0.0
 10
97.65157603895517
 20
-151.4047118762113
 30
0.0
 10
97.66328936360502
 20
-151.4546657607474
 30
0.0
 10
97.67276337618945
 20
-151.5022080784439
 30
0.0
 10
97.67276337618945
 20
-151.5022080784439
 30
0.0
 10
97.67379690483503
 20
-151.5032416070895
 30
0.0
 10
97.67379690483503
 20
-151.5032416070895
 30
0.0
 10
97.68292640787094
 20
-151.4674126140429
 30
0.0
 10
97.69498424206931
 20
-151.4308946018992
 30
0.0
 10
97.71048717175294
 20
-151.3874863987851
 30
0.0
 10
97.71048717175294
 20
-151.3874863987851
 30
0.0
 10
97.77542722164989
 20
-151.2172986818137
 30
0.0
 10
97.77542722164989
 20
-151.2172986818137
 30
0.0
 10
97.77542722164989
 20
-151.2172986818137
 30
0.0
 10
97.82331404889487
 20
-151.2448594456957
 30
0.0
 10
97.82331404889487
 20
-151.2448594456957
 30
0.0
 10
97.82331404889487
 20
-151.2448594456957
 30
0.0
 10
97.84587942432326
 20
-151.6672281521874
 30
0.0
 10
97.84587942432326
 20
-151.6672281521874
 30
0.0
  0
POLYLINE
  5
160
330
1F
100
AcDbEntity
  8
_____1
 62
    29
100
AcDb2dPolyline
 66
     1
 10
0.0
 20
0.0
 30
0.0
  0
VERTEX
  5
161
330
160
100
AcDbEntity
  8
_____1
 62
    29
100
AcDbVertex
100
AcDb2dVertex
 10
98.26066892074734
 20
-151.8105441243738
 30
0.0
  0
VERTEX
  5
162
330
160
100
AcDbEntity
  8
_____1
 62
    29
100
AcDbVertex
100
AcDb2dVertex
 10
98.08186846506287
 20
-151.7075357693648
 30
0.0
  0
VERTEX
  5
163
330
160
100
AcDbEntity
  8
_____1
 62
    29
100
AcDbVertex
100
AcDb2dVertex
 10
98.0822129746114
 20
-151.7926296278505
 30
0.0
  0
VERTEX
  5
164
330
160
100
AcDbEntity
  8
_____1
 62
    29
100
AcDbVertex
100
AcDb2dVertex
 10
98.26101343029586
 20
-151.8956379828594
 30
0.0
  0
VERTEX
  5
165
330
160
100
AcDbEntity
  8
_____1
 62
    29
100
AcDbVertex
100
AcDb2dVertex
 10
98.26066892074734
 20
-151.8105441243738
 30
0.0
  0
SEQEND
  5
166
330
160
100
AcDbEntity
  8
_____1
  0
POLYLINE
  5
167
330
1F
100
AcDbEntity
  8
_____1
 62
    29
100
AcDb2dPolyline
 66
     1
 10
0.0
 20
0.0
 30
0.0
  0
VERTEX
  5
168
330
167
100
AcDbEntity
  8
_____1
 62
    29
100
AcDbVertex
100
AcDb2dVertex
 10
98.280133710239
 20
-151.4904947537941
 30
0.0
  0
VERTEX
  5
169
330
167
100
AcDbEntity
  8
_____1
 62
    29
100
AcDbVertex
100
AcDb2dVertex
 10
98.280133710239
 20
-151.5208115940642
 30
0.0
  0
VERTEX
  5
16A
330
167
100
AcDbEntity
  8
_____1
 62
    29
100
AcDbVertex
100
AcDb2dVertex
 10
98.06137014692564
 20
-151.3947210993041
 30
0.0
  0
VERTEX
  5
16B
330
167
100
AcDbEntity
  8
_____1
 62
    29
100
AcDbVertex
100
AcDb2dVertex
 10
98.06171465647417
 20
-151.3644042590339
 30
0.0
  0
VERTEX
  5
16C
330
167
100
AcDbEntity
  8
_____1
 62
    29
100
AcDbVertex
100
AcDb2dVertex
 10
98.280133710239
 20
-151.4904947537941
 30
0.0
  0
SEQEND
  5
16D
330
167
100
AcDbEntity
  8
_____1
  0
POLYLINE
  5
16E
330
1F
100
AcDbEntity
  8
_____1
 62
    29
100
AcDb2dPolyline
 66
     1
 10
0.0
 20
0.0
 30
0.0
  0
VERTEX
  5
16F
330
16E
100
AcDbEntity
  8
_____1
 62
    29
100
AcDbVertex
100
AcDb2dVertex
 10
98.05671926802054
 20
-151.6172742676513
 30
0.0
  0
VERTEX
  5
170
330
16E
100
AcDbEntity
  8
_____1
 62
    29
100
AcDbVertex
100
AcDb2dVertex
 10
98.05671926802054
 20
-151.5873019369296
 30
0.0
  0
VERTEX
  5
171
330
16E
100
AcDbEntity
  8
_____1
 62
    29
100
AcDbVertex
100
AcDb2dVertex
 10
98.28788517508082
 20
-151.7213161513058
 30
0.0
  0
VERTEX
  5
172
330
16E
100
AcDbEntity
  8
_____1
 62
    29
100
AcDbVertex
100
AcDb2dVertex
 10
98.28822968462934
 20
-151.7512884820275
 30
0.0
  0
VERTEX
  5
173
330
16E
100
AcDbEntity
  8
_____1
 62
    29
100
AcDbVertex
100
AcDb2dVertex
 10
98.05671926802054
 20
-151.6172742676513
 30
0.0
  0
SEQEND
  5
174
330
16E
100
AcDbEntity
  8
_____1
  0
POLYLINE
  5
175
330
1F
100
AcDbEntity
  8
_____1
 62
    29
100
AcDb2dPolyline
 66
     1
 10
0.0
 20
0.0
 30
0.0
  0
VERTEX
  5
176
330
175
100
AcDbEntity
  8
_____1
 62
    29
100
AcDbVertex
100
AcDb2dVertex
 10
98.28822968462934
 20
-151.6458685601788
 30
0.0
  0
VERTEX
  5
177
330
175
100
AcDbEntity
  8
_____1
 62
    29
100
AcDbVertex
100
AcDb2dVertex
 10
98.28822968462934
 20
-151.676185400449
 30
0.0
  0
VERTEX
  5
178
330
175
100
AcDbEntity
  8
_____1
 62
    29
100
AcDbVertex
100
AcDb2dVertex
 10
98.05671926802054
 20
-151.5425156956213
 30
0.0
  0
VERTEX
  5
179
330
175
100
AcDbEntity
  8
_____1
 62
    29
100
AcDbVertex
100
AcDb2dVertex
 10
98.05671926802054
 20
-151.5121988553511
 30
0.0
  0
VERTEX
  5
17A
330
175
100
AcDbEntity
  8
_____1
 62
    29
100
AcDbVertex
100
AcDb2dVertex
 10
98.28822968462934
 20
-151.6458685601788
 30
0.0
  0
SEQEND
  5
17B
330
175
100
AcDbEntity
  8
_____1
  0
POLYLINE
  5
17C
330
1F
100
AcDbEntity
  8
_____1
 62
    29
100
AcDb2dPolyline
 66
     1
 10
0.0
 20
0.0
 30
0.0
  0
VERTEX
  5
17D
330
17C
100
AcDbEntity
  8
_____1
 62
    29
100
AcDbVertex
100
AcDb2dVertex
 10
98.05189613434119
 20
-151.8319037163823
 30
0.0
  0
VERTEX
  5
17E
330
17C
100
AcDbEntity
  8
_____1
 62
    29
100
AcDbVertex
100
AcDb2dVertex
 10
98.05189613434119
 20
-151.6593044325713
 30
0.0
  0
VERTEX
  5
17F
330
17C
100
AcDbEntity
  8
_____1
 62
    29
100
AcDbVertex
100
AcDb2dVertex
 10
98.29236379921164
 20
-151.7984862901754
 30
0.0
  0
VERTEX
  5
180
330
17C
100
AcDbEntity
  8
_____1
 62
    29
100
AcDbVertex
100
AcDb2dVertex
 10
98.29236379921164
 20
-151.9690185166953
 30
0.0
  0
VERTEX
  5
181
330
17C
100
AcDbEntity
  8
_____1
 62
    29
100
AcDbVertex
100
AcDb2dVertex
 10
98.26101343029586
 20
-151.951104020172
 30
0.0
  0
VERTEX
  5
182
330
17C
100
AcDbEntity
  8
_____1
 62
    29
100
AcDbVertex
100
AcDb2dVertex
 10
98.26066892074734
 20
-151.9256103135811
 30
0.0
  0
VERTEX
  5
183
330
17C
100
AcDbEntity
  8
_____1
 62
    29
100
AcDbVertex
100
AcDb2dVertex
 10
98.08186846506287
 20
-151.8222574490236
 30
0.0
  0
VERTEX
  5
184
330
17C
100
AcDbEntity
  8
_____1
 62
    29
100
AcDbVertex
100
AcDb2dVertex
 10
98.0822129746114
 20
-151.8494737033571
 30
0.0
  0
VERTEX
  5
185
330
17C
100
AcDbEntity
  8
_____1
 62
    29
100
AcDbVertex
100
AcDb2dVertex
 10
98.05189613434119
 20
-151.8319037163823
 30
0.0
  0
SEQEND
  5
186
330
17C
100
AcDbEntity
  8
_____1
  0
POLYLINE
  5
187
330
1F
100
AcDbEntity
  8
_____1
 62
    29
100
AcDb2dPolyline
 66
     1
 10
0.0
 20
0.0
 30
0.0
  0
VERTEX
  5
188
330
187
100
AcDbEntity
  8
_____1
 62
    29
100
AcDbVertex
100
AcDb2dVertex
 10
98.01727292471443
 20
-151.4147026531186
 30
0.0
  0
VERTEX
  5
189
330
187
100
AcDbEntity
  8
_____1
 62
    29
100
AcDbVertex
100
AcDb2dVertex
 10
98.32457544199872
 20
-151.5917805610604
 30
0.0
  0
VERTEX
  5
18A
330
187
100
AcDbEntity
  8
_____1
 62
    29
100
AcDbVertex
100
AcDb2dVertex
 10
98.32491995154724
 20
-151.6220974013306
 30
0.0
  0
VERTEX
  5
18B
330
187
100
AcDbEntity
  8
_____1
 62
    29
100
AcDbVertex
100
AcDb2dVertex
 10
98.01727292471443
 20
-151.4446749838402
 30
0.0
  0
VERTEX
  5
18C
330
187
100
AcDbEntity
  8
_____1
 62
    29
100
AcDbVertex
100
AcDb2dVertex
 10
98.01727292471443
 20
-151.4147026531186
 30
0.0
  0
SEQEND
  5
18D
330
187
100
AcDbEntity
  8
_____1
  0
SPLINE
  5
18E
330
1F
100
AcDbEntity
  8
_____1
 62
    29
100
AcDbSpline
210
0.0
220
0.0
230
1.0
 70
    11
 71
     3
 72
    38
 73
    34
 74
     0
 42
0.0000000001
 43
0.0000000001
 40
0.0
 40
0.0
 40
0.0
 40
0.0
 40
1.0
 40
1.0
 40
1.0
 40
2.0
 40
2.0
 40
2.0
 40
3.0
 40
3.0
 40
3.0
 40
4.0
 40
4.0
 40
4.0
 40
5.0
 40
5.0
 40
5.0
 40
6.0
 40
6.0
 40
6.0
 40
7.0
 40
7.0
 40
7.0
 40
8.0
 40
8.0
 40
8.0
 40
9.0
 40
9.0
 40
9.0
 40
10.0
 40
10.0
 40
10.0
 40
11.0
 40
11.0
 40
11.0
 40
11.0
 10
97.95508895120568
 20
-151.4663790853973
 30
0.0
 10
97.9375189642309
 20
-151.489805734697
 30
0.0
 10
97.91770966519071
 20
-151.5087537598659
 30
0.0
 10
97.89841713047332
 20
-151.5235676704525
 30
0.0
 10
97.89514428976233
 20
-151.5128878744482
 30
0.0
 10
97.88670380582347
 20
-151.4915282824396
 30
0.0
 10
97.88222518169265
 20
-151.4805039768868
 30
0.0
 10
97.92701142300089
 20
-151.4498426270681
 30
0.0
 10
97.97145315476061
 20
-151.3833522842028
 30
0.0
 10
97.9981526447713
 20
-151.3054931262361
 30
0.0
 10
97.9981526447713
 20
-151.3054931262361
 30
0.0
 10
98.03553193078626
 20
-151.3416666288313
 30
0.0
 10
98.03553193078626
 20
-151.3416666288313
 30
0.0
 10
98.0334648734951
 20
-151.3440781956709
 30
0.0
 10
98.03070879710691
 20
-151.3440781956709
 30
0.0
 10
98.02502438955625
 20
-151.3406331001857
 30
0.0
 10
98.01296655535788
 20
-151.3709499404559
 30
0.0
 10
97.99849715431982
 20
-151.4002332520805
 30
0.0
 10
97.98196069599062
 20
-151.4271049968655
 30
0.0
 10
97.98196069599062
 20
-151.4271049968655
 30
0.0
 10
97.99470754928605
 20
-151.4377847928697
 30
0.0
 10
97.99470754928605
 20
-151.4377847928697
 30
0.0
 10
97.994018530189
 20
-151.4405408692579
 30
0.0
 10
97.99143470857506
 20
-151.441918907452
 30
0.0
 10
97.98523353670161
 20
-151.4388183215153
 30
0.0
 10
97.98523353670161
 20
-151.4388183215153
 30
0.0
 10
97.98523353670161
 20
-151.7953857042387
 30
0.0
 10
97.98523353670161
 20
-151.7953857042387
 30
0.0
 10
97.98523353670161
 20
-151.7953857042387
 30
0.0
 10
97.95508895120568
 20
-151.7778157172639
 30
0.0
 10
97.95508895120568
 20
-151.7778157172639
 30
0.0
 10
97.95508895120568
 20
-151.7778157172639
 30
0.0
 10
97.95508895120568
 20
-151.4663790853973
 30
0.0
 10
97.95508895120568
 20
-151.4663790853973
 30
0.0
  0
POLYLINE
  5
18F
330
1F
100
AcDbEntity
  8
_____1
 62
    29
100
AcDb2dPolyline
 66
     1
 10
0.0
 20
0.0
 30
0.0
  0
VERTEX
  5
190
330
18F
100
AcDbEntity
  8
_____1
 62
    29
100
AcDbVertex
100
AcDb2dVertex
 10
98.68906654433816
 20
-151.8505072320027
 30
0.0
  0
VERTEX
  5
191
330
18F
100
AcDbEntity
  8
_____1
 62
    29
100
AcDbVertex
100
AcDb2dVertex
 10
98.68906654433816
 20
-151.7605902398376
 30
0.0
  0
VERTEX
  5
192
330
18F
100
AcDbEntity
  8
_____1
 62
    29
100
AcDbVertex
100
AcDb2dVertex
 10
98.4601399493433
 20
-151.628298573204
 30
0.0
  0
VERTEX
  5
193
330
18F
100
AcDbEntity
  8
_____1
 62
    29
100
AcDbVertex
100
AcDb2dVertex
 10
98.4601399493433
 20
-151.7182155653691
 30
0.0
  0
VERTEX
  5
194
330
18F
100
AcDbEntity
  8
_____1
 62
    29
100
AcDbVertex
100
AcDb2dVertex
 10
98.68906654433816
 20
-151.8505072320027
 30
0.0
  0
SEQEND
  5
195
330
18F
100
AcDbEntity
  8
_____1
  0
POLYLINE
  5
196
330
1F
100
AcDbEntity
  8
_____1
 62
    29
100
AcDb2dPolyline
 66
     1
 10
0.0
 20
0.0
 30
0.0
  0
VERTEX
  5
197
330
196
100
AcDbEntity
  8
_____1
 62
    29
100
AcDbVertex
100
AcDb2dVertex
 10
98.72127818712524
 20
-151.7461208387996
 30
0.0
  0
VERTEX
  5
198
330
196
100
AcDbEntity
  8
_____1
 62
    29
100
AcDbVertex
100
AcDb2dVertex
 10
98.72127818712524
 20
-151.9014946451844
 30
0.0
  0
VERTEX
  5
199
330
196
100
AcDbEntity
  8
_____1
 62
    29
100
AcDbVertex
100
AcDb2dVertex
 10
98.4298231090731
 20
-151.7333739855042
 30
0.0
  0
VERTEX
  5
19A
330
196
100
AcDbEntity
  8
_____1
 62
    29
100
AcDbVertex
100
AcDb2dVertex
 10
98.4298231090731
 20
-151.5780001791194
 30
0.0
  0
VERTEX
  5
19B
330
196
100
AcDbEntity
  8
_____1
 62
    29
100
AcDbVertex
100
AcDb2dVertex
 10
98.72127818712524
 20
-151.7461208387996
 30
0.0
  0
SEQEND
  5
19C
330
196
100
AcDbEntity
  8
_____1
  0
SPLINE
  5
19D
330
1F
100
AcDbEntity
  8
_____1
 62
    29
100
AcDbSpline
210
0.0
220
0.0
230
1.0
 70
    11
 71
     3
 72
    68
 73
    64
 74
     0
 42
0.0000000001
 43
0.0000000001
 40
0.0
 40
0.0
 40
0.0
 40
0.0
 40
1.0
 40
1.0
 40
1.0
 40
2.0
 40
2.0
 40
2.0
 40
3.0
 40
3.0
 40
3.0
 40
4.0
 40
4.0
 40
4.0
 40
5.0
 40
5.0
 40
5.0
 40
6.0
 40
6.0
 40
6.0
 40
7.0
 40
7.0
 40
7.0
 40
8.0
 40
8.0
 40
8.0
 40
9.0
 40
9.0
 40
9.0
 40
10.0
 40
10.0
 40
10.0
 40
11.0
 40
11.0
 40
11.0
 40
12.0
 40
12.0
 40
12.0
 40
13.0
 40
13.0
 40
13.0
 40
14.0
 40
14.0
 40
14.0
 40
15.0
 40
15.0
 40
15.0
 40
16.0
 40
16.0
 40
16.0
 40
17.0
 40
17.0
 40
17.0
 40
18.0
 40
18.0
 40
18.0
 40
19.0
 40
19.0
 40
19.0
 40
20.0
 40
20.0
 40
20.0
 40
21.0
 40
21.0
 40
21.0
 40
21.0
 10
98.786735001345
 20
-152.0155273057461
 30
0.0
 10
98.786735001345
 20
-152.0155273057461
 30
0.0
 10
98.50182560471482
 20
-151.8508517415512
 30
0.0
 10
98.50182560471482
 20
-151.8508517415512
 30
0.0
 10
98.4978637449068
 20
-151.8646321234922
 30
0.0
 10
98.49217933735612
 20
-151.8791015245302
 30
0.0
 10
98.48701169412826
 20
-151.8946044542139
 30
0.0
 10
98.48701169412826
 20
-151.8946044542139
 30
0.0
 10
98.69716251872849
 20
-152.0158718152946
 30
0.0
 10
98.69716251872849
 20
-152.0158718152946
 30
0.0
 10
98.69716251872849
 20
-152.0158718152946
 30
0.0
 10
98.70491398357031
 20
-152.0186278916829
 30
0.0
 10
98.70491398357031
 20
-152.0186278916829
 30
0.0
 10
98.70491398357031
 20
-152.0186278916829
 30
0.0
 10
98.72472328261048
 20
-152.0379204264003
 30
0.0
 10
98.72472328261048
 20
-152.0379204264003
 30
0.0
 10
98.72437877306197
 20
-152.0399874836914
 30
0.0
 10
98.7233452444164
 20
-152.0434325791767
 30
0.0
 10
98.72196720622229
 20
-152.0458441460163
 30
0.0
 10
98.70922035292686
 20
-152.137483685924
 30
0.0
 10
98.69716251872849
 20
-152.1726236598735
 30
0.0
 10
98.67959253175371
 20
-152.1802028699411
 30
0.0
 10
98.66787920710387
 20
-152.186059532266
 30
0.0
 10
98.65737166587385
 20
-152.1829589463293
 30
0.0
 10
98.62550453263529
 20
-152.1643554307089
 30
0.0
 10
98.60862356475756
 20
-152.1550536728987
 30
0.0
 10
98.58502466068362
 20
-152.1402397623122
 30
0.0
 10
98.56039222796407
 20
-152.123703303983
 30
0.0
 10
98.56004771841555
 20
-152.1126789984302
 30
0.0
 10
98.55574134905899
 20
-152.0964870496495
 30
0.0
 10
98.5497124319598
 20
-152.0833956868055
 30
0.0
 10
98.58364662248951
 20
-152.1057888074597
 30
0.0
 10
98.61809757734201
 20
-152.1264593803712
 30
0.0
 10
98.63049992108891
 20
-152.1340385904387
 30
0.0
 10
98.64221324573876
 20
-152.1409287814092
 30
0.0
 10
98.64789765328942
 20
-152.1429958387004
 30
0.0
 10
98.65375431561435
 20
-152.1419623100548
 30
0.0
 10
98.66719018800681
 20
-152.1385172145695
 30
0.0
 10
98.67666420059126
 20
-152.110611941139
 30
0.0
 10
98.68665497749848
 20
-152.0434325791767
 30
0.0
 10
98.68665497749848
 20
-152.0434325791767
 30
0.0
 10
98.47633189812397
 20
-151.9221652180958
 30
0.0
 10
98.47633189812397
 20
-151.9221652180958
 30
0.0
 10
98.47150876444462
 20
-151.9342230522942
 30
0.0
 10
98.46754690463659
 20
-151.9449028482985
 30
0.0
 10
98.46324053528002
 20
-151.9542046061087
 30
0.0
 10
98.44567054830526
 20
-151.9393906955221
 30
0.0
 10
98.43757457391492
 20
-151.9335340331972
 30
0.0
 10
98.4298231090731
 20
-151.9276773708723
 30
0.0
 10
98.44170868849722
 20
-151.903906212024
 30
0.0
 10
98.45669485385805
 20
-151.8653211425892
 30
0.0
 10
98.46754690463659
 20
-151.8315592068338
 30
0.0
 10
98.46754690463659
 20
-151.8315592068338
 30
0.0
 10
98.359543161174
 20
-151.7688584690022
 30
0.0
 10
98.359543161174
 20
-151.7688584690022
 30
0.0
 10
98.359543161174
 20
-151.7688584690022
 30
0.0
 10
98.359543161174
 20
-151.7354410427953
 30
0.0
 10
98.359543161174
 20
-151.7354410427953
 30
0.0
 10
98.359543161174
 20
-151.7354410427953
 30
0.0
 10
98.786735001345
 20
-151.9821098795392
 30
0.0
 10
98.786735001345
 20
-151.9821098795392
 30
0.0
 10
98.786735001345
 20
-151.9821098795392
 30
0.0
 10
98.786735001345
 20
-152.0155273057461
 30
0.0
 10
98.786735001345
 20
-152.0155273057461
 30
0.0
  0
ENDSEC
  0
SECTION
  2
OBJECTS
  0
DICTIONARY
  5
C
330
0
100
AcDbDictionary
  3
ACAD_GROUP
350
D
  3
ACAD_LAYOUT
350
1A
  3
ACAD_MLINESTYLE
350
17
  3
ACAD_PLOTSETTINGS
350
19
  3
ACAD_TABLESTYLE
350
1BE
  3
ACAD_VISUALSTYLE
350
2A
  3
ACDBHEADERROUNDTRIPXREC
350
19E
  0
DICTIONARY
  5
D
102
{ACAD_REACTORS
330
C
102
}
330
C
100
AcDbDictionary
  0
DICTIONARY
  5
1A
102
{ACAD_REACTORS
330
C
102
}
330
C
100
AcDbDictionary
  0
DICTIONARY
  5
17
102
{ACAD_REACTORS
330
C
102
}
330
C
100
AcDbDictionary
  3
STANDARD
350
18
  0
DICTIONARY
  5
19
102
{ACAD_REACTORS
330
C
102
}
330
C
100
AcDbDictionary
  0
DICTIONARY
  5
1BE
102
{ACAD_REACTORS
330
C
102
}
330
C
100
AcDbDictionary
  0
DICTIONARY
  5
2A
102
{ACAD_REACTORS
330
C
102
}
330
C
100
AcDbDictionary
  3
2DWIREFRAME
350
2F
  3
3DWIREFRAME
350
30
  3
3D_HIDDEN
350
31
  3
BASIC
350
32
  3
BRIGHTEN
350
36
  3
COLORCHANGE
350
3A
  3
CONCEPTUAL
350
34
  3
DIM
350
35
  3
FACEPATTERN
350
39
  3
FLAT
350
2B
  3
FLATWITHEDGES
350
2C
  3
GOURAUD
350
2D
  3
GOURAUDWITHEDGES
350
2E
  3
LINEPATTERN
350
38
  3
REALISTIC
350
33
  3
THICKEN
350
37
  0
DICTIONARY
  5
19E
102
{ACAD_REACTORS
330
C
102
}
330
C
100
AcDbDictionary
  3
CEPSNTYPE
350
1A7
  3
DIMSTYLEDATA
350
1BD
  3
FINGERPRINTGUID
350
1A8
  3
HYPERLINKBASE
350
1A1
  3
INSUNITS
350
1A6
  3
LAYOUTDICT
350
1A3
  3
LWETCUNION
350
1A5
  3
PLOTSETDICT
350
1A4
  3
PSVPSCALE
350
1AA
  3
PUCSBASE
350
1AD
  3
PUCSORGBACK
350
1B3
  3
PUCSORGBOTTOM
350
1AF
  3
PUCSORGFRONT
350
1B2
  3
PUCSORGLEFT
350
1B0
  3
PUCSORGRIGHT
350
1B1
  3
PUCSORGTOP
350
1AE
  3
PUCSORTHOREF
350
1AB
  3
PUCSORTHOVIEW
350
1AC
  3
STYLESHEET
350
1A2
  3
TSTACKALIGN
350
19F
  3
TSTACKSIZE
350
1A0
  3
UCSBASE
350
1B6
  3
UCSORGBACK
350
1BC
  3
UCSORGBOTTOM
350
1B8
  3
UCSORGFRONT
350
1BB
  3
UCSORGLEFT
350
1B9
  3
UCSORGRIGHT
350
1BA
  3
UCSORGTOP
350
1B7
  3
UCSORTHOREF
350
1B4
  3
UCSORTHOVIEW
350
1B5
  3
VERSIONGUID
350
1A9
  0
MLINESTYLE
  5
18
102
{ACAD_REACTORS
330
17
102
}
330
17
100
AcDbMlineStyle
  2
Standard
 70
     0
  3

 62
   256
 51
90.0
 52
90.0
 71
     2
 49
0.5
 62
   256
  6
BYLAYER
 49
-0.5
 62
   256
  6
BYLAYER
  0
VISUALSTYLE
  5
2F
102
{ACAD_REACTORS
330
2A
102
}
330
2A
100
AcDbVisualStyle
  2
2dWireframe
 70
     4
 71
     0
 72
     2
 73
     0
 90
        0
 40
-0.6
 41
-30.0
 62
     5
 63
     7
 74
     1
 91
        4
 64
     7
 65
   257
 75
     1
175
     1
 42
1.0
 92
        0
 66
   257
 43
1.0
 76
     1
 77
     6
 78
     2
 67
     7
 79
     5
170
     0
171
     0
290
     0
174
     0
 93
        1
 44
0.0
173
     0
291
     0
 45
0.0
1001
ACAD
1000
AcDbSavedByObjectVersion
1070
     0
  0
VISUALSTYLE
  5
30
102
{ACAD_REACTORS
330
2A
102
}
330
2A
100
AcDbVisualStyle
  2
3dWireframe
 70
     5
 71
     0
 72
     2
 73
     0
 90
        0
 40
-0.6
 41
-30.0
 62
     5
 63
     7
 74
     1
 91
        4
 64
     7
 65
   257
 75
     1
175
     1
 42
1.0
 92
        0
 66
   257
 43
1.0
 76
     1
 77
     6
 78
     2
 67
     7
 79
     5
170
     0
171
     0
290
     0
174
     0
 93
        1
 44
0.0
173
     0
291
     0
 45
0.0
1001
ACAD
1000
AcDbSavedByObjectVersion
1070
     0
  0
VISUALSTYLE
  5
31
102
{ACAD_REACTORS
330
2A
102
}
330
2A
100
AcDbVisualStyle
  2
3D Hidden
 70
     6
 71
     1
 72
     2
 73
     2
 90
        0
 40
-0.6
 41
-30.0
 62
     5
 63
     7
 74
     2
 91
        2
 64
     7
 65
   257
 75
     2
175
     1
 42
40.0
 92
        0
 66
   257
 43
1.0
 76
     1
 77
     6
 78
     2
 67
     7
 79
     3
170
     0
171
     0
290
     0
174
     0
 93
        1
 44
0.0
173
     0
291
     0
 45
0.0
1001
ACAD
1000
AcDbSavedByObjectVersion
1070
     0
  0
VISUALSTYLE
  5
32
102
{ACAD_REACTORS
330
2A
102
}
330
2A
100
AcDbVisualStyle
  2
Basic
 70
     7
 71
     1
 72
     0
 73
     1
 90
        0
 40
-0.6
 41
-30.0
 62
     5
 63
     7
 74
     0
 91
        4
 64
     7
 65
   257
 75
     1
175
     1
 42
1.0
 92
        8
 66
     7
 43
1.0
 76
     1
 77
     6
 78
     2
 67
     7
 79
     5
170
     0
171
     0
290
     0
174
     0
 93
        1
 44
0.0
173
     0
291
     1
 45
0.0
1001
ACAD
1000
AcDbSavedByObjectVersion
1070
     0
  0
VISUALSTYLE
  5
36
102
{ACAD_REACTORS
330
2A
102
}
330
2A
100
AcDbVisualStyle
  2
Brighten
 70
    12
 71
     2
 72
     2
 73
     0
 90
        0
 40
-0.6
 41
-30.0
 62
     5
 63
     7
 74
     1
 91
        4
 64
     7
 65
   257
 75
     1
175
     1
 42
1.0
 92
        8
 66
     7
 43
1.0
 76
     1
 77
     6
 78
     2
 67
     7
 79
     5
170
     0
171
     0
290
     0
174
     0
 93
        1
 44
50.0
173
     0
291
     1
 45
0.0
1001
ACAD
1000
AcDbSavedByObjectVersion
1070
     0
  0
VISUALSTYLE
  5
3A
102
{ACAD_REACTORS
330
2A
102
}
330
2A
100
AcDbVisualStyle
  2
ColorChange
 70
    16
 71
     2
 72
     2
 73
     3
 90
        0
 40
-0.6
 41
-30.0
 62
     5
 63
     8
 74
     1
 91
        4
 64
     7
 65
   257
 75
     1
175
     1
 42
1.0
 92
        8
 66
     8
 43
1.0
 76
     1
 77
     6
 78
     2
 67
     7
 79
     5
170
     0
171
     0
290
     0
174
     0
 93
        1
 44
0.0
173
     0
291
     1
 45
0.0
1001
ACAD
1000
AcDbSavedByObjectVersion
1070
     0
  0
VISUALSTYLE
  5
34
102
{ACAD_REACTORS
330
2A
102
}
330
2A
100
AcDbVisualStyle
  2
Conceptual
 70
     9
 71
     3
 72
     2
 73
     0
 90
        0
 40
-0.6
 41
-30.0
 62
     5
 63
     7
 74
     2
 91
        2
 64
     7
 65
   257
 75
     1
175
     1
 42
40.0
 92
        8
 66
     7
 43
1.0
 76
     1
 77
     6
 78
     2
 67
     7
 79
     3
170
     0
171
     0
290
     0
174
     0
 93
        1
 44
0.0
173
     0
291
     0
 45
0.0
1001
ACAD
1000
AcDbSavedByObjectVersion
1070
     0
  0
VISUALSTYLE
  5
35
102
{ACAD_REACTORS
330
2A
102
}
330
2A
100
AcDbVisualStyle
  2
Dim
 70
    11
 71
     2
 72
     2
 73
     0
 90
        0
 40
-0.6
 41
-30.0
 62
     5
 63
     7
 74
     1
 91
        4
 64
     7
 65
   257
 75
     1
175
     1
 42
1.0
 92
        8
 66
     7
 43
1.0
 76
     1
 77
     6
 78
     2
 67
     7
 79
     5
170
     0
171
     0
290
     0
174
     0
 93
        1
 44
-50.0
173
     0
291
     1
 45
0.0
1001
ACAD
1000
AcDbSavedByObjectVersion
1070
     0
  0
VISUALSTYLE
  5
39
102
{ACAD_REACTORS
330
2A
102
}
330
2A
100
AcDbVisualStyle
  2
Facepattern
 70
    15
 71
     2
 72
     2
 73
     0
 90
        0
 40
-0.6
 41
-30.0
 62
     5
 63
     7
 74
     1
 91
        4
 64
     7
 65
   257
 75
     1
175
     1
 42
1.0
 92
        8
 66
     7
 43
1.0
 76
     1
 77
     6
 78
     2
 67
     7
 79
     5
170
     0
171
     0
290
     0
174
     0
 93
        1
 44
0.0
173
     0
291
     1
 45
0.0
1001
ACAD
1000
AcDbSavedByObjectVersion
1070
     0
  0
VISUALSTYLE
  5
2B
102
{ACAD_REACTORS
330
2A
102
}
330
2A
100
AcDbVisualStyle
  2
Flat
 70
     0
 71
     2
 72
     1
 73
     1
 90
        2
 40
-0.6
 41
30.0
 62
     5
 63
     7
 74
     0
 91
        4
 64
     7
 65
   257
 75
     1
175
     1
 42
1.0
 92
        8
 66
     7
 43
1.0
 76
     1
 77
     6
 78
     2
 67
     7
 79
     5
170
     0
171
     0
290
     0
174
     0
 93
       13
 44
0.0
173
     0
291
     1
 45
0.0
1001
ACAD
1000
AcDbSavedByObjectVersion
1070
     0
  0
VISUALSTYLE
  5
2C
102
{ACAD_REACTORS
330
2A
102
}
330
2A
100
AcDbVisualStyle
  2
FlatWithEdges
 70
     1
 71
     2
 72
     1
 73
     1
 90
        2
 40
-0.6
 41
30.0
 62
     5
 63
     7
 74
     1
 91
        4
 64
     7
 65
   257
 75
     1
175
     1
 42
1.0
 92
        0
 66
   257
 43
1.0
 76
     1
 77
     6
 78
     2
 67
     7
 79
     5
170
     0
171
     0
290
     0
174
     0
 93
       13
 44
0.0
173
     0
291
     1
 45
0.0
1001
ACAD
1000
AcDbSavedByObjectVersion
1070
     0
  0
VISUALSTYLE
  5
2D
102
{ACAD_REACTORS
330
2A
102
}
330
2A
100
AcDbVisualStyle
  2
Gouraud
 70
     2
 71
     2
 72
     2
 73
     1
 90
        2
 40
-0.6
 41
30.0
 62
     5
 63
     7
 74
     0
 91
        4
 64
     7
 65
   257
 75
     1
175
     1
 42
1.0
 92
        0
 66
     7
 43
1.0
 76
     1
 77
     6
 78
     2
 67
     7
 79
     5
170
     0
171
     0
290
     0
174
     0
 93
       13
 44
0.0
173
     0
291
     1
 45
0.0
1001
ACAD
1000
AcDbSavedByObjectVersion
1070
     0
  0
VISUALSTYLE
  5
2E
102
{ACAD_REACTORS
330
2A
102
}
330
2A
100
AcDbVisualStyle
  2
GouraudWithEdges
 70
     3
 71
     2
 72
     2
 73
     1
 90
        2
 40
-0.6
 41
30.0
 62
     5
 63
     7
 74
     1
 91
        4
 64
     7
 65
   257
 75
     1
175
     1
 42
1.0
 92
        0
 66
   257
 43
1.0
 76
     1
 77
     6
 78
     2
 67
     7
 79
     5
170
     0
171
     0
290
     0
174
     0
 93
       13
 44
0.0
173
     0
291
     1
 45
0.0
1001
ACAD
1000
AcDbSavedByObjectVersion
1070
     0
  0
VISUALSTYLE
  5
38
102
{ACAD_REACTORS
330
2A
102
}
330
2A
100
AcDbVisualStyle
  2
Linepattern
 70
    14
 71
     2
 72
     2
 73
     0
 90
        0
 40
-0.6
 41
-30.0
 62
     5
 63
     7
 74
     1
 91
        4
 64
     7
 65
   257
 75
     7
175
     7
 42
1.0
 92
        8
 66
     7
 43
1.0
 76
     1
 77
     6
 78
     2
 67
     7
 79
     5
170
     0
171
     0
290
     0
174
     0
 93
        1
 44
0.0
173
     0
291
     1
 45
0.0
1001
ACAD
1000
AcDbSavedByObjectVersion
1070
     0
  0
VISUALSTYLE
  5
33
102
{ACAD_REACTORS
330
2A
102
}
330
2A
100
AcDbVisualStyle
  2
Realistic
 70
     8
 71
     2
 72
     2
 73
     0
 90
        0
 40
-0.6
 41
-30.0
 62
     5
 63
     7
 74
     1
 91
        0
 64
     7
 65
   257
 75
     1
175
     1
 42
1.0
 92
        8
 66
     8
 43
1.0
 76
     1
 77
     6
 78
     2
 67
     7
 79
     5
170
     0
171
     0
290
     0
174
     0
 93
       13
 44
0.0
173
     0
291
     0
 45
0.0
1001
ACAD
1000
AcDbSavedByObjectVersion
1070
     0
  0
VISUALSTYLE
  5
37
102
{ACAD_REACTORS
330
2A
102
}
330
2A
100
AcDbVisualStyle
  2
Thicken
 70
    13
 71
     2
 72
     2
 73
     0
 90
        0
 40
-0.6
 41
-30.0
 62
     5
 63
     7
 74
     1
 91
        4
 64
     7
 65
   257
 75
     1
175
     1
 42
1.0
 92
       12
 66
     7
 43
1.0
 76
     1
 77
     6
 78
     2
 67
     7
 79
     5
170
     0
171
     0
290
     0
174
     0
 93
        1
 44
0.0
173
     0
291
     1
 45
0.0
1001
ACAD
1000
AcDbSavedByObjectVersion
1070
     0
  0
XRECORD
  5
1A7
102
{ACAD_REACTORS
330
19E
102
}
330
19E
100
AcDbXrecord
 90
        0
  0
XRECORD
  5
1BD
102
{ACAD_REACTORS
330
19E
102
}
330
19E
100
AcDbXrecord
1000
DSTYLE
1002
{
1070
   340
340
11
1002
}
  0
XRECORD
  5
1A8
102
{ACAD_REACTORS
330
19E
102
}
330
19E
100
AcDbXrecord
  1
{929AA98C-07EA-09C7-2B26-5BE8DC40BF75}
  0
XRECORD
  5
1A1
102
{ACAD_REACTORS
330
19E
102
}
330
19E
100
AcDbXrecord
  1

  0
XRECORD
  5
1A6
102
{ACAD_REACTORS
330
19E
102
}
330
19E
100
AcDbXrecord
 90
        1
  0
XRECORD
  5
1A3
102
{ACAD_REACTORS
330
19E
102
}
330
19E
100
AcDbXrecord
340
1A
  0
XRECORD
  5
1A5
102
{ACAD_REACTORS
330
19E
102
}
330
19E
100
AcDbXrecord
 90
    10269
  0
XRECORD
  5
1A4
102
{ACAD_REACTORS
330
19E
102
}
330
19E
100
AcDbXrecord
340
19
  0
XRECORD
  5
1AA
102
{ACAD_REACTORS
330
19E
102
}
330
19E
100
AcDbXrecord
 40
0.0
  0
XRECORD
  5
1AD
102
{ACAD_REACTORS
330
19E
102
}
330
19E
100
AcDbXrecord
340
0
  0
XRECORD
  5
1B3
102
{ACAD_REACTORS
330
19E
102
}
330
19E
100
AcDbXrecord
 10
0.0
 20
0.0
 30
0.0
  0
XRECORD
  5
1AF
102
{ACAD_REACTORS
330
19E
102
}
330
19E
100
AcDbXrecord
 10
0.0
 20
0.0
 30
0.0
  0
XRECORD
  5
1B2
102
{ACAD_REACTORS
330
19E
102
}
330
19E
100
AcDbXrecord
 10
0.0
 20
0.0
 30
0.0
  0
XRECORD
  5
1B0
102
{ACAD_REACTORS
330
19E
102
}
330
19E
100
AcDbXrecord
 10
0.0
 20
0.0
 30
0.0
  0
XRECORD
  5
1B1
102
{ACAD_REACTORS
330
19E
102
}
330
19E
100
AcDbXrecord
 10
0.0
 20
0.0
 30
0.0
  0
XRECORD
  5
1AE
102
{ACAD_REACTORS
330
19E
102
}
330
19E
100
AcDbXrecord
 10
0.0
 20
0.0
 30
0.0
  0
XRECORD
  5
1AB
102
{ACAD_REACTORS
330
19E
102
}
330
19E
100
AcDbXrecord
340
0
  0
XRECORD
  5
1AC
102
{ACAD_REACTORS
330
19E
102
}
330
19E
100
AcDbXrecord
 70
     0
  0
XRECORD
  5
1A2
102
{ACAD_REACTORS
330
19E
102
}
330
19E
100
AcDbXrecord
  1

  0
XRECORD
  5
19F
102
{ACAD_REACTORS
330
19E
102
}
330
19E
100
AcDbXrecord
 90
        1
  0
XRECORD
  5
1A0
102
{ACAD_REACTORS
330
19E
102
}
330
19E
100
AcDbXrecord
 90
       70
  0
XRECORD
  5
1B6
102
{ACAD_REACTORS
330
19E
102
}
330
19E
100
AcDbXrecord
340
0
  0
XRECORD
  5
1BC
102
{ACAD_REACTORS
330
19E
102
}
330
19E
100
AcDbXrecord
 10
0.0
 20
0.0
 30
0.0
  0
XRECORD
  5
1B8
102
{ACAD_REACTORS
330
19E
102
}
330
19E
100
AcDbXrecord
 10
0.0
 20
0.0
 30
0.0
  0
XRECORD
  5
1BB
102
{ACAD_REACTORS
330
19E
102
}
330
19E
100
AcDbXrecord
 10
0.0
 20
0.0
 30
0.0
  0
XRECORD
  5
1B9
102
{ACAD_REACTORS
330
19E
102
}
330
19E
100
AcDbXrecord
 10
0.0
 20
0.0
 30
0.0
  0
XRECORD
  5
1BA
102
{ACAD_REACTORS
330
19E
102
}
330
19E
100
AcDbXrecord
 10
0.0
 20
0.0
 30
0.0
  0
XRECORD
  5
1B7
102
{ACAD_REACTORS
330
19E
102
}
330
19E
100
AcDbXrecord
 10
0.0
 20
0.0
 30
0.0
  0
XRECORD
  5
1B4
102
{ACAD_REACTORS
330
19E
102
}
330
19E
100
AcDbXrecord
340
0
  0
XRECORD
  5
1B5
102
{ACAD_REACTORS
330
19E
102
}
330
19E
100
AcDbXrecord
 70
     0
  0
XRECORD
  5
1A9
102
{ACAD_REACTORS
330
19E
102
}
330
19E
100
AcDbXrecord
  1
{FAEB1C32-E019-11D5-929B-00C0DF256EC4}
  0
ENDSEC
  0
EOF
